>
 >
Black Rose Dying

Black Rose Dying Guitar Tabs

Blessthefall - Black Rose Dying chords, tabs, tablatures, lyrics

Guitar lessons | Add/correct | Request | Top 50 tabs Artists:  A B C D E F G H I J K L M N O P Q R S T U V W X Y Z 0-9

Black Rose Dying Guitar Tabs – Blessthefall

CD, Sheet music, Poster

Do you like Black Rose Dying? Share with your friends now
Tabs
Drop D (D A D G B e)

/ slide up

\ slide down



{3} above a series of 3 notes means it’s a triplet, otherwise its 3 notes fast

^ - scrape pinch (like a pinch harmonic but with a more trashy sound)

INTRO

Guitar 1
(-:----:---------------------------------------------------------------------------------|
e|---------------------------------------------------------------------------------------|
B|-----6-6p5-5-------------6-6p5-5---------------6-6p5-5---------------------------------|
G|------------5-5---x4------------5-5---x2---------------5-5-----x2----------------------|
D|---0-------------------5---------------------3-----------------------------------------|
A|---------------------------------------------------------------------------------------|
D|---------------------------------------------------------------------------------------|

Guitar 2
(just before guitar 1 finishes….)
e|-------------------------------------------------------------------------------------|
B|-------------------------------------------------------------------------------------|
G|-------------------------------------------------------------------------------------|
D|-------------------------------------------------------------------------------------|
A|---------------------------------------------------------------------------^5\-------|
D|-------------------------------------------------------------------------------------|


Verse Part 1:
Guitar 1
(-:----:---------------------------------------------------------------------------------|
e|---------------------------------------------------------------------------------------|
B|-----6-5-----------------6--5------------------6-5-------------------------------------|
G|---------5-----x4—------------5-----x2-------------5----------x2-----------------------|
D|--00--0---------------55--5-----------------33--3--------------------------------------|
A|---------------------------------------------------------------------------------------|
D|---------------------------------------------------------------------------------------|
    PM  |               PM  |                 PM  |


(-:----:---------------------------------------------------------------------------------|
e|---------------------------------------------------------------------------------------|
B|--------------------------------------------------------------------------(tens)-------|
G|---------------------------------------------------------------------------------------|
D|--0-0-00-00-0-0-00-00-0-0-00-00-0-0-00-00-5-5-55-55-5-5-55-55-8-8-88-88-10-10-1010-----|
A|--0-0-00-00-0-0-00-00-0-0-00-00-0-0-00-00-5-5-55-55-5-5-55-55-8-8-88-88-10-10-1010-----|
D|--0-0-00-00-0-0-00-00-0-0-00-00-0-0-00-00-5-5-55-55-5-5-55-55-8-8-88-88-10-10-1010-----|
   PM-->|  PM----->| PM---->|  PM---->|  PM---->|  PM---->|  PM---->|  PM----------------|
(That’s the basic rhythm, you can make some of the doubles triplets and it might sound 
that’s what I do but this is the basic rhythm).

Play that x2 then…

Verse Part 2 (x3)
Guitar 2 (Guitar 1 is at rest)
(-:----:-------------------------------------------------------------------------------|
e|------------------------------------------------------------------------|------------|
B|------------------------------------------------------------------------|-END--WITH--|
G|-----{3}---------{3}---------{3}---------{3}-----------------3-3-33s5-5-|------------|
D|--0--000-0-000-0-000-0-000-0-000-0-000-0-000-0-000--555555/--3-3-33-x-x-|------------|
A|--0--000-0-000-0-000-0-000-0-000-0-000-0-000-0-000--555555/--1-1-11s3-3-|------^5\---|
D|--0--000-0-000-0-000-0-000-0-000-0-000-0-000-0-000--555555/-------------|------------|
    PM-->|   PM----->|   PM----->|   PM----->|   PM------>|    PM----------------------|

REPEAT VERSE PART 1 x2
REPEAT VERSE PART 2 x3

BRIDGE
Guitar 2 (Guitar 1 is at rest)
(-:----:--)                                                                            e|---------------------------|--|
B|---------------------------|-----------------------------------------------------------------------------------------|
G|-----{3}-----{3}-----------|-----------------------------------------------------------------------------------------|
D|--0--000--0--000--0-0-0--x3|-0-000-0---------------------------------------------------------------------------------|
A|--0--000--0--000--0-0-0----|-0-000-0---------------------------------------------------------------------------------|
D|--0--000--0--000--0-0-0----|-0-000-0---------------------------------------------------------------------------------|
    PM-----------------------------------------------------------------------------------------------------------------|


(-:----:--)   |ending 1| ending 2 |  ending 3 |ending 4--------|
e|---------------|--------|----------|-----------|-------------|
B|---------------|--------|---x-xx---|-----------|-x-x---------|
G|---------------|--------|---x-xx---|-----------|-x-x---------|      x2
D|-0000000-00-00-|--------|----------|--^7\------|-------------|
A|-0000000-00-00-|---^5\--|----------|-----------|-------------|
D|-0000000-00-00-|--------|----------|-----------|-------------|
   PM----------------------------------------------------------|

INTERLUDE PART 1 (x1)
Guitar 2
(-:----:---------------------------------------------------------------------------------|
e|---------------|------------------------------|----------------------------------------|
B|---------------|---66-6-6-65-5--5--5--5-5-----|-/666666s55555555-----------------------|
G|---------------|---x--x-x-xx-x--x--x--x-x—x3-|--xxxxxx-xxxxxxxx------------------------|
D|-00--00--00--0-|---33-3-3-32-2--2--2--2-2-----|-/333333-22222222-----------------------|
A|-00--00--00--0-|------------------------------|----------------------------------------|
D|-00--00--00--0-|------------------------------|----------------------------------------|
   PM--------->|     PM     PM       PM--------------------------------------------------|


INTERLUDE PART 2 (x3)
Guitar 2
(-:----:---------------------------------------------------------------------------------|
e|---------------------------------------------------------------------------------------|
B|--------6-6-6--------5-5-5-------------------------------------------------------------|
G|--------x-x-x--------x-x-x-x4----------------------------------------------------------|
D|--0-00--3-3-3--0-00--2-2-2-------------------------------------------------------------|
A|--0-00---------0-00--------------------------------------------------------------------|
D|--0-00---------0-00--------------------------------------------------------------------|
    PM>|         PM>|
Guitar 1 (come in on third playing, play through third and fourth playings)
(-:----:---------------------------------------------------------------------------------|
e|---------------------------------------------------------------------------------------|
B|---------------------------------------------------------------------------------------|
G|-------------tremelo-picking-----------------------------------------------------------|
D|---------------------------------------------------------------------------------------|
A|--333555777888101010888777888777555333222----------------------------------------------|
D|---------------------------------------------------------------------------------------|
    PM----->|
 INTERLUDE PART 3
 GUITAR 1                                           | GUITAR 2 (DURING THE LAST PLAYING  
                         .                                                   |          
       OF THE LAST PART)
(-:----:--)                                        --------------------------------------|
e|-----------------|---------------|----------------|------------------------------------|
B|------6---5------|----6---5------|-----6---5------|------------------------------------|
G|------------5—---|----------5—---|-----------5----|------------------------------------|
D|---00---0--------|-55---5--------|--33---3--------|---0000000000000000-----------------|
A|--------------x4-|------------x2-|-------------x2-|---0000000000000000-----------------|
D|-----------------|---------------|----------------|---0000000000000000-----------------|

VERSE PART 1 x1

VERSE PART 1 VARIATION

GUITAR 1
(-:----:---------------------------------------------------------------------------------|
e|---------------------------------------------------------------------------------------|
B|------6---5-----------6p5----------5h6p5-5h68p6p5-6p5---------6------------------------|
G|------------5—-x4---------8p6p5h6h8-----8-------------8p6p5h68-------------------------|
D|---00---0------------------------------------------------------------------------------|
A|---------------------------------------------------------------------------------------|
D|---------------------------------------------------------------------------------------|

e|--------------------------------------------------------------------------------|
B|-----------------------------------------------------------------6-6-6-5-5-5----|
G|-----{3}---------{3}---------{3}---------{3}---------------------x-x-x-x-x-x----|
D|--0--000-0-000-0-000-0-000-0-000-0-000-0-000-0-000--555555/------3-3-3-2-2-2----|
A|--0--000-0-000-0-000-0-000-0-000-0-000-0-000-0-000--555555/---------------------|
D|--0--000-0-000-0-000-0-000-0-000-0-000-0-000-0-000--555555/---------------------|
    PM-->|   PM----->|   PM----->|   PM----->|   PM-------------------------------|

OUTRO (UNSURE ABOUT THIS PART, EMAIL ANY IDEAS FOR CORRECTIONS)

GUITAR 1
(-:----:--)---------------------------------------|                                  END ON
e|---------------------------------------|--------|
B|---------------------------------------|--------|
G|---12p9p7-(x4)—14p11p9-----to-end...---|---7~~--|
D|---------------------------------------|---x~~--|
A|---------------------------------------|---5~~--|
E|---------------------------------------|--------|


GUITAR 2
(-:----:--)---------------------------------------|                                  END ON
e|---------------------------------------|--------|
B|---------------------------------------|--------|
G|---------------------------------------|--------|
D|--00000000000000000000000--to-end...---|---0~~--|
A|--00000000000000000000000--------------|---0~~--|
E|--00000000000000000000000--------------|---0~~--|





Comments


Popular Blessthefall tabs & chords
A Message To The Unknown Bass Tabs
Hey Baby, Here's That Song You Wanted Bass Tabs
Stay Still 2 Bass Tabs
Guys Like You Make Us Look Bad 5 Tabs
Higinia 2 Tabs
Rise Up 3 Tabs
Stay Still Intro 2 Tabs
Take Me Now 1 Tabs
To Hell And Back Intro 1 Tabs
Whats Left Of Me 2 Tabs


Song lyrics



↑ Back to top | Tablatures and chords are parodies/interpretations of the original songs. You may use it for private study, scholarship, research or language learning purposes only
© 2014 AZChords.com Contact us | Privacy policy | DMCA | Add/correct tabs | Request tabs | Top 50 tabs