» » »

Blessthefall, A Message To The Unknown Bass tabs (ver.1)

Artists:  A B C D E F G H I J K L M N O P Q R S T U V W X Y Z # 

A Message To The Unknown Bass tabs (ver.1)

Blessthefall Tabs
Rating:
5/5 (1 vote)
A Message To The Unknown lessons Tabs too difficult? Try these video lessons and learn fast
                                  _______________________________________
                /_________________________________________\



Tuning: Drop D

Key:
~~~~~ = Let the note ring
/ = Slide up

Intro (Electronic sounds)

(Turn me on, let me feel you)
G|------------------------------------------------|
D|------------------------------------------------|
A|------------------------1-1-1/7-7-7-7-7-7-------|
D|0-0-0-0-0-0-0-0-0-0-0-0-------------------3-3-3-|

(Turn me on, let me taste you)
G|------------------------------------------------|
D|------------------------------------------------|
A|------------------------1-1-1/7-7-7-7-7-7-------|
D|0-0-0-0-0-0-0-0-0-0-0-0-------------------3-3-3-|

(Boundaries are starting to fall / Conceiving has already started)
G|------------------------------------------------|
D|------------------------------------------------|
A|------------------------1-1-1/7-7-7-7-7-7-------|
D|0-0-0-0-0-0-0-0-0-0-0-0-------------------3-3-3-|

(Kissing, caressing, indulge / Is this really what you wanted?)
G|-------------------------------|
D|-------------------------------|
A|-----------1-1-1-1-1-1-1-1-1---|
D|0-0-0-0~~~-------------------3-|

(No, I just don't know if I can)
G|------------------------------------------------|
D|------------------------------------------------|
A|------------------------1-1-1-1-1-1-1-1-1-1-1-1-|
D|0-0-0-0-0-0-0-0-0-0-0-0-------------------------|

(No, I just don't know if I can)
G|------------------------------------------------|
D|------------------------------------------------|
A|------------------------1-1-1-1-1-1-1-1-1-1-1-1-|
D|0-0-0-0-0-0-0-0-0-0-0-0-------------------------|

(Is this really what you wanted?)
G|------------------------------------------------|
D|------------------------------------------------|
A|------------------------1-1-1-1-1-1-1-1-1-1-1-1-|
D|0-0-0-0-0-0-0-0-0-0-0-0-------------------------|

(Is this really what you, yeah)
G|----------------------------------------------|
D|----------------------------------------------|
A|------------------------1-1-1-1-1-1-1-1-1-----|
D|0-0-0-0-0-0-0-0-0-0-0-0-------------------3~~~|

(Even though I don't know you)
G|------------------------------------------------|
D|------------------------------------------------|
A|------------------------1-1-1/7-7-7-7-7-7-------|
D|0-0-0-0-0-0-0-0-0-0-0-0-------------------3-3-3-|

(I know for sure, I love you)
G|------------------------------------------------|
D|------------------------------------------------|
A|------------------------1-1-1/7-7-7-7-7-7-------|
D|0-0-0-0-0-0-0-0-0-0-0-0-------------------3-3-3-|

(Anything that you'll ever...)
G|------------------------------------------------|
D|------------------------------------------------|
A|------------------------1-1-1/7-7-7-7-7-7-------|
D|0-0-0-0-0-0-0-0-0-0-0-0-------------------3-3-3-|

(Need, I'll try my best to give every...)
G|------------------------------------------------|
D|------------------------------------------------|
A|------------------------1-1-1-1-1-1-1-1-1-1-1-1-|
D|0-0-0-0-0-0-0-0-0-0-0-0-------------------------|

(Thing)
G|-------------------------------------------------|
D|-------------------------------------------------|
A|-------------------------------------------------|
D|0~~~-0-0-0-00-00-0-0--00-00-0~~~-0-0-0-00-00-0-0-|

(I tell myself it's nothing, nothing / I tell myself it's nothing)
G|-------------------------------------------------|
D|-------------------------------------------------|
A|-------------------------------------------------|
D|0~~~-0-0-0-00-00-0-0--00-00-0~~~-0-0-0-00-00-0-0-|

(Almost nothing / And take my hand)
G|----------------------------------------------------------------|
D|----------------------------------------------------------------|
A|--------------------------------1-1-1-1-1-1-1-1-1-1-1-1-1-1-1-1-|
D|0-0-0-0-0-0-0-0-3-3-3-3-3-3-3-3---------------------------------|

G|-----------------------------------------------------------------------|
D|-----------------------------------------------------------------------|
A|--------------------------------1-1-1-1-1-1-1-1-1-1-1-1-1-1-1-1--------|
D|0-0-0-0-0-0-0-0-3-3-3-3-3-3-3-3---------------------------------0~~~~~-|

(Close your eyes, and take my hand)
G|----------------------------------------------------------------|
D|----------------------------------------------------------------|
A|--------------------------------1-1-1-1-1-1-1-1-1-1-1-1-1-1-1-1-|
D|0-0-0-0-0-0-0-0-3-3-3-3-3-3-3-3---------------------------------|

(We will rise, once again)
G|----------------------------------------------------------------|
D|----------------------------------------------------------------|
A|--------------------------------1-1-1-1-1-1-1-1-1-1-1-1-1-1-1-1-|
D|0-0-0-0-0-0-0-0-3-3-3-3-3-3-3-3---------------------------------|

(Close your eyes, and take His hand)
G|----------------------------------------------------------------|
D|----------------------------------------------------------------|
A|--------------------------------1-1-1-1-1-1-1-1-1-1-1-1-1-1-1-1-|
D|0-0-0-0-0-0-0-0-3-3-3-3-3-3-3-3---------------------------------|

(We'll be home, once again)
G|----------------------------------------------------------------|
D|----------------------------------------------------------------|
A|--------------------------------1-1-1-1-1-1-1-1-1-1-1-1-1-1-1-1-|
D|0-0-0-0-0-0-0-0-3-3-3-3-3-3-3-3---------------------------------|

(That's my father, That's my father)
G|---------------------------------|
D|---------------------------------|
A|---------------------------------|
D|00-00--00-00--00-00--00-00--0~~~-|
            
Submit corrections

comments powered by Disqus
↑ Back to top | Blessthefall Bass for A Message To The Unknown. Lyrics for acoustic guitar and electric guitar. Tablatures and chords are parodies/interpretations of the original songs. You may use it for private study, scholarship, research or language learning purposes only