>
 >
A Message To The Unknown

A Message To The Unknown Guitar Tabs

Blessthefall - A Message To The Unknown chords, tabs, tablatures, lyrics

Guitar lessons | Add/correct | Request | Top 50 tabs Artists:  A B C D E F G H I J K L M N O P Q R S T U V W X Y Z 0-9

A Message To The Unknown Guitar Tabs – Blessthefall

CD, Sheet music, Poster

Do you like A Message To The Unknown? Share with your friends now
Bass TabsTabs
                         A Message To The Unknown
                               Blessthefall
                              His Last Walk

Words by Craigafer Mabbitt                           Music by Blessthefall

Gtr I (D A D G B e)
Gtr II (D A D G B e)
Gtr III (D A D G B e)

   Moderate Q=108
  6/8
   Gtr I
    E  E    E    S  S  S  S  S  S    S  S  S  S  S  S  S  S  S  S  S  S
||--------------------------------|-------------------------------------|
||--------------------------------|-------------------------------------|
||*-------------14-14-14-14-14-14-|-14-14-14-14-14-14-14-14-14-14-14-14-|
||*-------------------------------|-------------------------------------|
||--------------12-12-12-12-12-12-|-12-12-12-12-12-12-12-12-12-12-12-12-|
||--------------------------------|-------------------------------------|
|
|  Gtr II
|                     PM-|                                   PM-|
|   E +S S +S S E     S  S  E        E    +S  S +S  S  E     S  S  E
||--------------------------------|-------------------------------------|
||--------------------------------|-------------------------------------|
||*-------------------------------|-------------------------------------|
||*-0----0----0-0-----0--0--0-----|--0--------0-----0--0-----0--0--0----|
||--0----0----0-0-----0--0--0-----|--0--------0-----0--0-----0--0--0----|
||--0----0----0-0-----0--0--0-----|--0--------0-----0--0-----0--0--0----|



  E   E   E   S  S  S  S  S  S    S  S  S  S  S  S  S  S  S  S  S  S
|-------------------------------|--------------------------------------||
|-------------------------------|--------------------------------------||
|-------------10-10-10-10-10-10-|-10-10-10-10-10-10-10-10-10-10-10-10-*||
|-------------------------------|-------------------------------------*||
|-------------8--8--8--8--8--8--|-8--8--8--8--8--8--8--8--8--8--8--8---||
|-------------------------------|--------------------------------------||
|
| S S S S S S S  S  S  S  S  S    S  S  S  S  S  S  S  S  S  S  S  S
|-------------------------------|--------------------------------------||
|-------------------------------|--------------------------------------||
|-------------------------------|-------------------------------------*||
|-8-8-8-8-8-8-8--8--8--8--8--8--|-8--8--8--8--8--8--3--3--3--3--3--3--*||
|-8-8-8-8-8-8-8--8--8--8--8--8--|-8--8--8--8--8--8--3--3--3--3--3--3---||
|-8-8-8-8-8-8-8--8--8--8--8--8--|-8--8--8--8--8--8--3--3--3--3--3--3---||



  S  S S  S S  S  S S S S S S   S  S S  S S  S  S S S S S S
|-----------------------------|-----------------------------|
|-----------------------------|-----------------------------|
|------7h10p9=p7-10p0-9p0-7p0-|------7h10p9=p7-10p0-9p0-7p0-|
|-7h10------------------------|-7h10------------------------|
|-----------------------------|-----------------------------|
|-----------------------------|-----------------------------|
|
|                     PM|                           PM|
| E   +S  S +S S  E   S S E     E   +S  S +S S  E   S S E
|-----------------------------|-----------------------------|
|-----------------------------|-----------------------------|
|-----------------------------|-----------------------------|
|-0-------0----0--0---0-0-0---|-0-------0----0--0---0-0-0---|
|-0-------0----0--0---0-0-0---|-0-------0----0--0---0-0-0---|
|-0-------0----0--0---0-0-0---|-0-------0----0--0---0-0-0---|



  S  S S  S S S  S S S S S S   S  S S  S S S  S S S S S S
|----------------------------|----------------------------|
|----------------------------|----------------------------|
|------7h10p9p7-10p0-9p0-7p0-|------7h10p9p7-10p0-9p0-7p0-|
|-7h10-----------------------|-7h10-----------------------|
|----------------------------|----------------------------|
|----------------------------|----------------------------|
|
| S  S S  S S S  S S S S S S   S  S S  S S S  S S S S S S
|----------------------------|----------------------------|
|----------------------------|----------------------------|
|----------------------------|----------------------------|
|-8--8-8--8-8-8--8-8-8-8-8-8-|-8--8-8--8-8-8--3-3-3-3-3-3-|
|-8--8-8--8-8-8--8-8-8-8-8-8-|-8--8-8--8-8-8--3-3-3-3-3-3-|
|-8--8-8--8-8-8--8-8-8-8-8-8-|-8--8-8--8-8-8--3-3-3-3-3-3-|



  S  S S  S S  S  S S S S S S   S  S S  S S S  S S S S S S
|-----------------------------|----------------------------|
|-----------------------------|----------------------------|
|------7h10p9=p7-10p0-9p0-7p0-|------7h10p9p7-10p0-9p0-7p0-|
|-7h10------------------------|-7h10-----------------------|
|-----------------------------|----------------------------|
|-----------------------------|----------------------------|
|
| E   +S  S +S S  Q.            +H.
|-----------------------------|----------------------------|
|-----------------------------|----------------------------|
|-----------------------------|----------------------------|
|-0-------0----0--0-----------|----------------------------|
|-0-------0----0--0-----------|----------------------------|
|-0-------0----0--0-----------|----------------------------|



  S  S S  S S S  S S S S S S   S  S S  S S S  E   E   E
|----------------------------|----------------------------|
|----------------------------|----------------------------|
|------7h10p9p7-10p0-9p0-7p0-|------7h10p9p7-10-----------|
|-7h10-----------------------|-7h10-----------------------|
|----------------------------|----------------------------|
|----------------------------|----------------------------|
|
| S  S S  S S S  S S S S S S   S  S S  S S S  E   E   E
|----------------------------|----------------------------|
|----------------------------|----------------------------|
|----------------------------|----------------------------|
|-8--8-8--8-8-8--8-8-8-8-8-8-|-8--8-8--8-8-8--8-----------|
|-8--8-8--8-8-8--8-8-8-8-8-8-|-8--8-8--8-8-8--8-----------|
|-8--8-8--8-8-8--8-8-8-8-8-8-|-8--8-8--8-8-8--8-----------|



    H.                         H.
||---------------------------|------------------|
||---------------------------|------------------|
||*--------------------------|------------------|
||*--------------------------|------------------|
||---------------------------|------------------|
||---------------------------|------------------|
|
|     PM--------|    PM----|
|   S S +S S +S S E  S S S S   H.
||---------------------------|------------------|
||---------------------------|------------------|
||*--------------------------|------------------|
||*-0-------------0----------|------------------|
||--0-0----0----0-0--0-0-0-0-|------------------|
||--0-0----0----0-0--0-0-0-0-|------------------|



  Q.           S S S  S  S    S  S  S  S  S  S  Q.
|--------------------------|--------------------------------------||
|--------------------------|--------------------------------------||
|-------------10p9---------|-------------------------------------*||
|--------------------12p10-|-12p10-------------------------------*||
|--------------------------|-------12p10-12p10--------------------||
|--------------------------|--------------------------------------||
|
| E +S S +S S Q.              E     E     E     E     E     E
|--------------------------|--------------------------------------||
|--------------------------|--------------------------------------||
|--------------------------|-------------------------------------*||
|-8----8----8-8------------|--8-----8-----8-----8-----8-----8----*||
|-8----8----8-8------------|--8-----8-----8-----8-----8-----8-----||
|-8----8----8-8------------|--8-----8-----8-----8-----8-----8-----||



  E +S S +S S  S S S  S  S S    S S  S S  S S  S S  S S  S  S
|----------------------------|--------------------------------|
|-------------10p8-----------|-10---11---10-------------------|
|------------------7-10h12-7-|----7----7----7-12p7-10p7-10/12-|
|-0----0----0----------------|--------------------------------|
|-0----0----0----------------|--------------------------------|
|-0----0----0----------------|--------------------------------|
|
| E +S S +S S  S S S  S  S S    S S  S S  S S  S S  S S  S  S
|----------------------------|--------------------------------|
|----------------------------|--------------------------------|
|-------------10p9----7h=9---|-10---12---10----9----7----7//9-|
|-0----0----0------7-------7-|----7----7----7----7----7-------|
|-0----0----0----------------|--------------------------------|
|-0----0----0----------------|--------------------------------|



                                                         A.H
  E +S S +S S  S  S  S  S  S  S    S S  S S  S S S S S S  E
|-------------------------------|----------------------------|
|-------------------------------|----------------------------|
|-------------10h12-10h12-10h12-|-10---12---10---9---7----9--|
|-8----8----8-------------------|----7----7----7---7---7-----|
|-8----8----8-------------------|----------------------------|
|-8----8----8-------------------|----------------------------|
|                                                         C
|
|                                                        A.H
| E +S S +S S  S  S  S  S  S  S    S S  S S  S S S S S S  E
|-------------------------------|----------------------------|
|-------------------------------|----------------------------|
|--------------7h=9--7h=9--7h=9-|--7-7--9-7--7-7-5-7-4-7--5--|
|-8----8----8-------------------|----------------------------|
|-8----8----8-------------------|----------------------------|
|-8----8----8-------------------|----------------------------|
                                                          C



  E +S S +S S  S S S  S  S S    S S  S S  S S  S S  S S  S  S
|----------------------------|--------------------------------|
|-------------10p8-----------|-10---11---10-------------------|
|------------------7-10h12-7-|----7----7----7-12p7-10p7-10/12-|
|-0----0----0----------------|--------------------------------|
|-0----0----0----------------|--------------------------------|
|-0----0----0----------------|--------------------------------|
|
| E +S S +S S  S S S  S  S S    S S  S S  S S  S S  S S  S  S
|----------------------------|--------------------------------|
|----------------------------|--------------------------------|
|-------------10p9----7h=9---|-10---12---10----9----7----7//9-|
|-0----0----0------7-------7-|----7----7----7----7----7-------|
|-0----0----0----------------|--------------------------------|
|-0----0----0----------------|--------------------------------|



  E.   E.   Q.       E  E  E  Q.       H.
|------------------|-----------------|-----------------|
|------------------|-----------------|-----------------|
|------------------|-----------------|-----------------|
|-8----8----8------|-8--8--8---------|-----------------|
|-8----8----8------|-8--8--8---------|-----------------|
|-8----8----8------|-8--8--8---------|-----------------|
|
| E.   E.   Q.       E  E  E  Q.       H.
|------------------|-----------------|-----------------|
|------------------|-----------------|-----------------|
|------------------|-----------------|-----------------|
|-8----8----8------|-8--8--8---------|-----------------|
|-8----8----8------|-8--8--8---------|-----------------|
|-8----8----8------|-8--8--8---------|-----------------|



    E  E    E    S  S  S  S  S  S    S  S  S  S  S  S  S  S  S  S  S  S
||--------------------------------|-------------------------------------|
||--------------------------------|-------------------------------------|
||*-------------14-14-14-14-14-14-|-14-14-14-14-14-14-14-14-14-14-14-14-|
||*-------------------------------|-------------------------------------|
||--------------12-12-12-12-12-12-|-12-12-12-12-12-12-12-12-12-12-12-12-|
||--------------------------------|-------------------------------------|
|
|  Gtr II
|                     PM-|                                   PM-|
|   E +S S +S S E     S  S  E        E    +S  S +S  S  E     S  S  E
||--------------------------------|-------------------------------------|
||--------------------------------|-------------------------------------|
||*-------------------------------|-------------------------------------|
||*-0----0----0-0-----0--0--0-----|--0--------0-----0--0-----0--0--0----|
||--0----0----0-0-----0--0--0-----|--0--------0-----0--0-----0--0--0----|
||--0----0----0-0-----0--0--0-----|--0--------0-----0--0-----0--0--0----|



  E   E   E   S  S  S  S  S  S    S  S  S  S  S  S  S  S  S  S  S  S
|-------------------------------|--------------------------------------||
|-------------------------------|--------------------------------------||
|-------------10-10-10-10-10-10-|-10-10-10-10-10-10-10-10-10-10-10-10-*||
|-------------------------------|-------------------------------------*||
|-------------8--8--8--8--8--8--|-8--8--8--8--8--8--8--8--8--8--8--8---||
|-------------------------------|--------------------------------------||
|
| S S S S S S S  S  S  S  S  S    S  S  S  S  S  S  S  S  S  S  S  S
|-------------------------------|--------------------------------------||
|-------------------------------|--------------------------------------||
|-------------------------------|-------------------------------------*||
|-8-8-8-8-8-8-8--8--8--8--8--8--|-8--8--8--8--8--8--3--3--3--3--3--3--*||
|-8-8-8-8-8-8-8--8--8--8--8--8--|-8--8--8--8--8--8--3--3--3--3--3--3---||
|-8-8-8-8-8-8-8--8--8--8--8--8--|-8--8--8--8--8--8--3--3--3--3--3--3---||



  S  S S  S S  S  S S S S S S   S  S S  S S  S  S S S S S S
|-----------------------------|-----------------------------|
|-----------------------------|-----------------------------|
|------7h10p9=p7-10p0-9p0-7p0-|------7h10p9=p7-10p0-9p0-7p0-|
|-7h10------------------------|-7h10------------------------|
|-----------------------------|-----------------------------|
|-----------------------------|-----------------------------|
|
|                     PM|                           PM|
| E   +S  S +S S  E   S S E     E   +S  S +S S  E   S S E
|-----------------------------|-----------------------------|
|-----------------------------|-----------------------------|
|-----------------------------|-----------------------------|
|-0-------0----0--0---0-0-0---|-0-------0----0--0---0-0-0---|
|-0-------0----0--0---0-0-0---|-0-------0----0--0---0-0-0---|
|-0-------0----0--0---0-0-0---|-0-------0----0--0---0-0-0---|



  S  S S  S S S  S S S S S S   S  S S  S S S  S S S S S S
|----------------------------|----------------------------|
|----------------------------|----------------------------|
|------7h10p9p7-10p0-9p0-7p0-|------7h10p9p7-10p0-9p0-7p0-|
|-7h10-----------------------|-7h10-----------------------|
|----------------------------|----------------------------|
|----------------------------|----------------------------|
|
| S  S S  S S S  S S S S S S   S  S S  S S S  S S S S S S
|----------------------------|----------------------------|
|----------------------------|----------------------------|
|----------------------------|----------------------------|
|-8--8-8--8-8-8--8-8-8-8-8-8-|-8--8-8--8-8-8--3-3-3-3-3-3-|
|-8--8-8--8-8-8--8-8-8-8-8-8-|-8--8-8--8-8-8--3-3-3-3-3-3-|
|-8--8-8--8-8-8--8-8-8-8-8-8-|-8--8-8--8-8-8--3-3-3-3-3-3-|



  S  S S  S S  S  S S S S S S   S  S S  S S  S  S S S S S S
|-----------------------------|-----------------------------|
|-----------------------------|-----------------------------|
|------7h10p9=p7-10p0-9p0-7p0-|------7h10p9=p7-10p0-9p0-7p0-|
|-7h10------------------------|-7h10------------------------|
|-----------------------------|-----------------------------|
|-----------------------------|-----------------------------|
|
|                     PM|                           PM|
| E   +S  S +S S  E   S S E     E   +S  S +S S  E   S S E
|-----------------------------|-----------------------------|
|-----------------------------|-----------------------------|
|-----------------------------|-----------------------------|
|-0-------0----0--0---0-0-0---|-0-------0----0--0---0-0-0---|
|-0-------0----0--0---0-0-0---|-0-------0----0--0---0-0-0---|
|-0-------0----0--0---0-0-0---|-0-------0----0--0---0-0-0---|



  S  S S  S S S  S S S S S S   S  S S  S S S  S S S S S S
|----------------------------|----------------------------|
|----------------------------|----------------------------|
|------7h10p9p7-10p0-9p0-7p0-|------7h10p9p7-10p0-9p0-7p0-|
|-7h10-----------------------|-7h10-----------------------|
|----------------------------|----------------------------|
|----------------------------|----------------------------|
|
| S  S S  S S S  S S S S S S   S  S S  S S S  S S S S S S
|----------------------------|----------------------------|
|----------------------------|----------------------------|
|----------------------------|----------------------------|
|-8--8-8--8-8-8--8-8-8-8-8-8-|-8--8-8--8-8-8--8-8-8-8-8-8-|
|-8--8-8--8-8-8--8-8-8-8-8-8-|-8--8-8--8-8-8--8-8-8-8-8-8-|
|-8--8-8--8-8-8--8-8-8-8-8-8-|-8--8-8--8-8-8--8-8-8-8-8-8-|




   Q=170
  4/4
                        PM-----------------|
    W                E  E  E  S S E  E  E  E
||-----------------|--------------------------|
||-----------------|--------------------------|
||*----------------|--------------------------|
||*-0--------------|----0--0--0-0-0--0--0--0--|
||--0--------------|----0--0--0-0-0--0--0--0--|
||--0--------------|----0--0--0-0-0--0--0--0--|
|
|
|                       PM-----------------|
|   W                E  E  E  S S E  E  E  E
||-----------------|--------------------------|
||-----------------|--------------------------|
||*----------------|--------------------------|
||*-0--------------|----0--0--0-0-0--0--0--0--|
||--0--------------|----0--0--0-0-0--0--0--0--|
||--0--------------|----0--0--0-0-0--0--0--0--|



  PM-----------------------------------|
  E  E  H.           E  E  E  E  E  E  E  E
|------------------|-------------------------|
|------------------|-------------------------|
|------------------|-------------------------|
|-0--0-------------|----0--0--------0--0-----|
|-0--0-------------|----0--0--------0--0-----|
|-0--0-------------|----0--0--------0--0-----|
|
|
| PM-----------------------------------|
| E  E  H.           E  E  E  E  E  E  E  E
|------------------|-------------------------|
|------------------|-------------------------|
|------------------|-------------------------|
|-0--0-------------|----0--0--------0--0-----|
|-0--0-------------|----0--0--------0--0-----|
|-0--0-------------|----0--0--------0--0-----|



                      PM-----------------|
  W                E  E  E  S S E  E  E  E
|----------------|--------------------------|
|----------------|--------------------------|
|----------------|--------------------------|
|-0--------------|----0--0--0-0-0--0--0--0--|
|-0--------------|----0--0--0-0-0--0--0--0--|
|-0--------------|----0--0--0-0-0--0--0--0--|
|
|
|                     PM-----------------|
| W                E  E  E  S S E  E  E  E
|----------------|--------------------------|
|----------------|--------------------------|
|----------------|--------------------------|
|-0--------------|----0--0--0-0-0--0--0--0--|
|-0--------------|----0--0--0-0-0--0--0--0--|
|-0--------------|----0--0--0-0-0--0--0--0--|



  PM-|
  E  E  H.           W
|------------------|-----------------||
|------------------|-----------------||
|------------------|----------------*||
|-0--0-------------|----------------*||
|-0--0-------------|-----------------||
|-0--0-------------|-----------------||
|
|
| PM-|
| E  E  H.           W
|------------------|-----------------||
|------------------|-----------------||
|------------------|----------------*||
|-0--0-------------|----------------*||
|-0--0-------------|-----------------||
|-0--0-------------|-----------------||



  W         W         W         W
|---------|---------|---------|---------|
|---------|---------|---------|---------|
|---------|---------|---------|---------|
|---------|---------|---------|---------|
|---------|---------|---------|---------|
|---------|---------|---------|---------|
|
| W         W         W         W
|---------|---------|---------|---------|
|---------|---------|---------|---------|
|---------|---------|---------|---------|
|---------|---------|---------|---------|
|---------|---------|---------|---------|
|---------|---------|---------|---------|



  W         W         W         W
|---------|---------|---------|---------|
|---------|---------|---------|---------|
|---------|---------|---------|---------|
|---------|---------|---------|---------|
|---------|---------|---------|---------|
|---------|---------|---------|---------|
|
| W         W         W         W
|---------|---------|---------|---------|
|---------|---------|---------|---------|
|---------|---------|---------|---------|
|---------|---------|---------|---------|
|---------|---------|---------|---------|
|---------|---------|---------|---------|



    Clean----------------------------------------|
     E  E  E  E  Q   E  E    E  E  E  E  E  E  E E  8x
||------------------------|-------------------------||
||-----10--------------10-|-13-10-11----10----------||
||*-12----12-10-12--12----|----------12----10-12-9-*||
||*-----------------------|------------------------*||
||------------------------|-------------------------||
||------------------------|-------------------------||
|
|   Clean----------------------------------------|
|    E  E  E  E  Q   E  E    E  E  E  E  E  E  E E  8x
||------------------------|-------------------------||
||------------------------|-10----------------------||
||*--9-10--9--7--9---9-10-|-----9-10--7--9-----7---*||
||*-----------------------|----------------10----7-*||
||------------------------|-------------------------||
||------------------------|-------------------------||


   Gtr I
    E E E E E E E E   E E E E E E E E
||------------------|-----------------|
||------------------|-----------------|
||*-7-7-7-7-7-7-7-7-|-7-7-7-7-7-7-7-7-|
||*-----------------|-----------------|
||--5-5-5-5-5-5-5-5-|-5-5-5-5-5-5-5-5-|
||------------------|-----------------|
|
|  Gtr II
|   E E E E E E E E   E E E E E E E E
||------------------|-----------------|
||------------------|-----------------|
||*-----------------|-----------------|
||*-0-0-0-0-0-0-0-0-|-0-0-0-0-2-2-2-2-|
||--0-0-0-0-0-0-0-0-|-0-0-0-0-2-2-2-2-|
||--0-0-0-0-0-0-0-0-|-0-0-0-0-2-2-2-2-|
|
|  Gtr III
|   W                 +W
||------------------|-----------------|
||------------------|-----------------|
||*-7---------------|-----------------|
||*-----------------|-----------------|
||------------------|-----------------|
||------------------|-----------------|



  E  E  E  E  E  E  E  E    E  E  E  E  E  E  E  E
|-------------------------|-------------------------|
|-------------------------|-------------------------|
|-10-10-10-10-10-10-10-10-|-10-10-10-10-10-10-10-10-|
|-------------------------|-------------------------|
|-8--8--8--8--8--8--8--8--|-8--8--8--8--8--8--8--8--|
|-------------------------|-------------------------|
|
| E  E  E  E  E  E  E  E    E  E  E  E  E  E  E  E
|-------------------------|-------------------------|
|-------------------------|-------------------------|
|-------------------------|-------------------------|
|-3--3--3--3--3--3--3--3--|-3--3--3--3--3--3--3--3--|
|-3--3--3--3--3--3--3--3--|-3--3--3--3--3--3--3--3--|
|-3--3--3--3--3--3--3--3--|-3--3--3--3--3--3--3--3--|
|
| W                         +W
|-------------------------|-------------------------|
|-------------------------|-10----------------------|
|-10----------------------|-------------------------|
|-------------------------|-------------------------|
|-------------------------|-------------------------|
|-------------------------|-------------------------|



  E  E  E  E  E  E  E  E    E  E  E  E  E  E  E  E
|-------------------------|-------------------------|
|-------------------------|-------------------------|
|-10-10-10-10-10-10-10-10-|-10-10-10-10-10-10-10-10-|
|-------------------------|-------------------------|
|-8--8--8--8--8--8--8--8--|-8--8--8--8--8--8--8--8--|
|-------------------------|-------------------------|
|
| E  E  E  E  E  E  E  E    E  E  E  E  E  E  E  E
|-------------------------|-------------------------|
|-------------------------|-------------------------|
|-------------------------|-------------------------|
|-8--8--8--8--8--8--8--8--|-8--8--8--8--8--8--8--8--|
|-8--8--8--8--8--8--8--8--|-8--8--8--8--8--8--8--8--|
|-8--8--8--8--8--8--8--8--|-8--8--8--8--8--8--8--8--|
|
| W                         +W
|-------------------------|-------------------------|
|-8-----------------------|-------------------------|
|-------------------------|-------------------------|
|-------------------------|-------------------------|
|-------------------------|-------------------------|
|-------------------------|-------------------------|



  E  E  E  E  E  E  E  E    E  E  E  E  E  E  E  E   4x
|-------------------------|--------------------------||
|-------------------------|--------------------------||
|-10-10-10-10-10-10-10-10-|-10-10-10-10-10-10-10-10-*||
|-------------------------|-------------------------*||
|-8--8--8--8--8--8--8--8--|-8--8--8--8--8--8--8--8---||
|-------------------------|--------------------------||
|
| E  E  E  E  E  E  E  E    E  E  E  E  E  E  E  E   4x
|-------------------------|--------------------------||
|-------------------------|--------------------------||
|-------------------------|-------------------------*||
|-8--8--8--8--8--8--8--8--|-8--8--8--8--8--8--8--8--*||
|-8--8--8--8--8--8--8--8--|-8--8--8--8--8--8--8--8---||
|-8--8--8--8--8--8--8--8--|-8--8--8--8--8--8--8--8---||
|
| W                         +W                       4x
|-------------------------|--------------------------||
|-------------------------|--------------------------||
|-10----------------------|-------------------------*||
|-------------------------|-------------------------*||
|-------------------------|--------------------------||
|-------------------------|--------------------------||


    Gtr I
     E  E  E  E  E  E  E  E    E  E  E  E  E  E  E  E
||--------------------------|-------------------------|
||--------------------------|-------------------------|
||*-10-10-14-14-14-14-10-10-|-14-14-14-14-14-14-14-14-|
||*-------------------------|-------------------------|
||--8--8--12-12-12-12-8--8--|-12-12-12-12-12-12-12-12-|
||--------------------------|-------------------------|
|
|  Gtr II
|   PM-|              PM-|          PM-|
|   E  E  E  E  E  E  E  E    E  E  E  E  H
||-------------------------|-------------------------|
||-------------------------|-------------------------|
||*------10-10-10-10-------|-10-10-------12bū--------|
||*-0--0--------------0--0-|--------0--0-------------|
||--0--0-8--8--8--8---0--0-|-8--8---0--0-------------|
||--0--0--------------0--0-|--------0--0-------------|



   E  E  E  E  E  E  E  E    E  E  E  E  E  E  E  E
|-------------------------|--------------------------||
|-------------------------|--------------------------||
|-10-10-14-14-14-14-10-10-|-14-14-14-14-14-14-14-14-*||
|-------------------------|-------------------------*||
|-8--8--12-12-12-12-8--8--|-12-12-12-12-12-12-12-12--||
|-------------------------|--------------------------||
|
|  PM-|              PM-|          PM-------------|
|  E  E  E  E  E  E  E  E    E  E  E  E  E  E  E  E
|-------------------------|--------------------------|| Don't PM
|-------------------------|--------------------------|| bend and
|-------10-10-10-10-------|-10-10-------12bū--------*|| let it
|--0--0--------------0--0-|--------0--0--0--0--0--0-*|| ring for
|--0--0-8--8--8--8---0--0-|-8--8---0--0--0--0--0--0--|| the next
|--0--0--------------0--0-|--------0--0--0--0--0--0--|| 3 chords


  W            +W           +W           +W
|------------|------------|------------|------------*||
|------------|------------|------------|------------*||
|-10---------|------------|------------|------------*||
|------------|------------|------------|------------*||
|-8----------|------------|------------|------------*||
|------------|------------|------------|------------*||
|
| w            +W           +W           +W
|------------|------------|------------|------------*||
|------------|------------|------------|------------*||
|------------|------------|------------|------------*||
|-0----------|------------|------------|------------*||
|-0----------|------------|------------|------------*||
|-0----------|------------|------------|------------*||





Comments


Popular Blessthefall tabs & chords
40 Days Bass Tabs
Take Me Now 2 Bass Tabs
40 Days 1 Tabs
Bottomfeeder Tabs
Could Tell A Love 1 Tabs
His Last Walk Tabs
In Search Of Words Tabs
Rise Up 1 Tabs
Take Me Now 1 Tabs
Take Me Now Part 2 Tabs


Song lyrics



↑ Back to top | Tablatures and chords are parodies/interpretations of the original songs. You may use it for private study, scholarship, research or language learning purposes only
© 2014 AZChords.com Contact us | Privacy policy | DMCA | Add/correct tabs | Request tabs | Top 50 tabs