» » »

Albright Tabs (ver.1)

Artists:  A B C D E F G H I J K L M N O P Q R S T U V W X Y Z # 

Albright Tabs (ver.1)

Blessthefall
Rating:
0/5 (0 votes)

Hard to play? Try these video lessons and learn fast.
                Albright by Bless the Fallen

This song was really easy to play by ear. Still trying to figure out the part after the breakdown.

D|------------------------------------------------|
A|------------------------------------------------|
F|------------------------------------------------|
C|////-0000-0-0-0-0000-0-0-0-0000-0-0-0-0000-0----|
G|////-0000-0-0-0-0000-0-0-0-0000-0-0-0-0000-0----|
C|////-0000-0-0-0-0000-0-0-0-0000-0-0-0-0000-0-3*-|
       xxxx x x x xxxx x x x xxxx x x x xxxx x

Repeat Intro

D|------|
A|------|
F|------|
C|0~----|
G|0~----|
C|0~----|

Verse 1

D|-------------------------------------------|
A|-------------------------------------------|
F|-------------------------------------------|
C|-000000000000-8-7-5--0000000000-8-7-5-3--5-|x2
G|-000000000000-8-7-5--0000000000-8-7-5-3--5-|
C|-000000000000-8-7-5--0000000000-8-7-5-3--5-|
   xxxxxxxxxxxx        xxxxxxxxxx

You would know this part just open palm-mute. Just a pinched harmonic on the 3rd fret is all.

Repeat verse 1 

Then the breakdown

Verse 2

D|--------------------|
A|--------------------|
F|--------------------|
C|-0------------------|x2
G|-0-8-7-5-10-8-8h10p-|
C|-0--0-0-0--0-0------|

D|-----------------------------------------|
A|-----------------------------------------|
F|-----------------------------------------|
C|-8-------------------7-------------------|
G|-8-8-7-5-10-8-8h10p8-7-8-7-5-10-8-8h10p8-|
C|-8--8-8-8--8-8-------7--7-7-7--7-7-------|

D|---|----------------|
A|---|----------------|
F|---|----------------|
C|-0-|----------------|x2
G|-0-|--7h8-7h8-7h8-5-|
C|-0-|----------------|
 You'll know the rythme

D|------|
A|------|
F|------|
C|-0-0~-|
G|-0-0~-|
C|-0-0~-|
   X

You'll know the rythme so yeah...

Just the last actual notes that are not open
D|---|     |--------|
A|-5-|     |--------|
F|-8-|     |--------|
C|---|     |--------|
G|---|     |2-1-0---|
C|---| and |3-2-1-3*|
            x x x
            
Hard to play? Try these video lessons and learn fast. | Correct




comments powered by Disqus
↑ Back to top | Tablatures and chords are parodies/interpretations of the original songs. You may use it for private study, scholarship, research or language learning purposes only