» » »

This Is Love This Is Murderous Tabs (ver.1)

Artists:  A B C D E F G H I J K L M N O P Q R S T U V W X Y Z # 

This Is Love This Is Murderous Tabs (ver.1)

Bleeding Through
Rating:
0/5 (0 votes)

Tabs too difficult? Try these video lessons and learn fast.
                (Intro)
Bleeding Through-This is Love, This is Murderous



This song is an awesome song off from their "This is Love, This is Murderous" Album. I 
have much of the song down so please excuse me. I am just going to post what I have so far!
Live for Metal!!!!

Still not exact. please comment

Tuning(low to high)= B♭-F-B♭-E♭-G-C or know as Drop B


|------------------------------------------|
|------------------------------------------|
|------------------------------------------|
|-------0-----(0)------0------------0-(0)--|
|-13s4--0-----(0)------0--5h6p5--7--0-(0)--|
|-13s4--0-----(0)------0---------7--0-(0)--|


                             x many times
|-------------------------------------|
|------------------------------------*|
|-------------------------------------|
|-0-0-0-0---0---(0)---0-0-------------|
|-0-0-0-0---0---(0)---0-0--5h6p5--7--*|
|-0-0-0-0---0---(0)---0-0---------7---|

|------------|
|------------|
|------------|
|-0-----(0)--|
|-0-----(0)--|
|-0-----(0)--|

|-----------------------------------------------------------------|
|-----------------------------------------------------------------|
|-----------------------------------------------------------------|
|-----------------------------------------------------------------|
|-00-00-00-00---00-00-00-00-5h6p5--7--00-00--5h6p5--7--5h6p5--7---|
|-00-00-00-00---00-00-00-00--------7--00-00---------7---------7---|

|-------------------------------------|
|------------------------------------*|
|-------------------------------------|
|-0-0-0-0---0---(0)---0-0-------------|
|-0-0-0-0---0---(0)---0-0--5h6p5--7--*|
|-0-0-0-0---0---(0)---0-0---------7---|

ALTERNATE BETWEEN THESE TWO
(trem pick)
|----------------|
|---------------.|
|----------------|
|----------------|
|-1p0-0-1p0--00-.|
|-1p0-0-1p0--00--|
|
|
|
|--------------------|
|-------------------.|
|--------------------|
|--------------------|
|-1p0-0-1p0--00-00--.|
|-1p0-0-1p0--00-00---|

|-----------------------------------|
|-----------------------------------|
|-----------------------------------|
|-----------------------------------|
|-----------------------------------|
|-----------------------------------|



Key

|--------|
|-------.|
|--------|
|--------| = Repeat
|-------.|
|--------|

(0)  = ghost note or let ring

h    = hammer on

p    = pull off
            
Tabs too difficult? Try these video lessons and learn fast.




comments powered by Disqus
↑ Back to top | Tablatures and chords are parodies/interpretations of the original songs. You may use it for private study, scholarship, research or language learning purposes only