>
 >
There Was A Flood

There Was A Flood Guitar Tabs

Bleeding Through - There Was A Flood chords, tabs, tablatures, lyrics

Guitar lessons | Add/correct | Request | Top 50 tabs Artists:  A B C D E F G H I J K L M N O P Q R S T U V W X Y Z 0-9

There Was A Flood Guitar Tabs – Bleeding Through

CD, Sheet music, Poster

Do you like There Was A Flood? Share with your friends now
Tabs

Tuning:Dropped B

This is the first tab I've done for an entire song.  The only way I can improve is if you
make suggestions.

Intro Q=154

   E E E E E E E E  E E E E E E E SS E E E E E E E E  E E E E E E E E SS E E E E E E E E  
|------------------|----------------|----------------|------------------|----------------|
|------------------|----------------|----------------|------------------|----------------|
|o-7-7-7-7-7-7-7-7-|7-7-7-7-7-7-7-77|----------------|------------------|----------------|
|o-7-7-7-7-7-7-7-7-|7-7-7-7-7-7-7-77|8-8-8-8-8-8-8-8-|8-8-8-8-8-8-8-8-88|7-7-7-7-7-7-7-7-|
|--5-5-5-5-5-5-5-5-|5-5-5-5-5-5-5-55|8-8-8-8-8-8-8-8-|8-8-8-8-8-8-8-8-88|7-7-7-7-7-7-7-7-|
|------------------|----------------|8-8-8-8-8-8-8-8-|8-8-8-8-8-8-8-8-88|7-7-7-7-7-7-7-7-|

 E E E E E E E SS E E E E E E E E  E E E E E E E SS 
|----------------|----------------|------------------|
|----------------|----------------|------------------|
|----------------|----------------|-----------------o| 4x
|7-7-7-7-7-7-7-77|5-5-5-5-5-5-5-5-|5-5-5-5-5-5-5-55-o|
|7-7-7-7-7-7-7-77|5-5-5-5-5-5-5-5-|5-5-5-5-5-5-5-55--|
|7-7-7-7-7-7-7-77|5-5-5-5-5-5-5-5-|5-5-5-5-5-5-5-55--|

 E E E E E E E E  E E E E E E E E  E E E E E E E E  E E E E E E E E  E E E E E E E E
|----------------|----------------|----------------|----------------|----------------|
|----------------|----------------|----------------|----------------|----------------|
|7-7-7-7-7-7-7-7-|7-7-7-7-7-7-7-7-|----------------|----------------|----------------|
|7-7-7-7-7-7-7-7-|7-7-7-7-7-7-7-7-|8-8-8-8-8-8-8-8-|8-8-8-8-8-8-8-8-|7-7-7-7-7-7-7-7-|
|5-5-5-5-5-5-5-5-|5-5-5-5-5-5-5-5-|8-8-8-8-8-8-8-8-|8-8-8-8-8-8-8-8-|7-7-7-7-7-7-7-7-|
|----------------|----------------|8-8-8-8-8-8-8-8-|8-8-8-8-8-8-8-8-|7-7-7-7-7-7-7-7-|

                  accel. to Q=200
 E E E E E E E E    Q   Q   Q   Q    Q   Q   E E Q
|----------------|------------------|-----------------|
|----------------|------------------|-----------------|
|----------------|o-----------------|----------------o|
|7-7-7-7-7-7-7-7-|o-5---5---5---5---|5---5---5-7-8---o|
|7-7-7-7-7-7-7-7-|--5---5---5---5---|5---5---5-7-8----|
|7-7-7-7-7-7-7-7-|--5---5---5---5---|5---5---5-7-8----|


Verse Q=200

 E E E E E E E E  E E E E E E E E  E E E E E E E E  E E E E E E E E 
|----------------|----------------|----------------|----------------|
|----------------|----------------|----------------|----------------|
|----------------|----------------|----------------|----------------|
|----------------|----------------|----------------|----------------|
|8-0-0-8-0-0-8-0-|0-8-0-0-8-0-8-0-|7-0-0-7-0-0-7-0-|4-0-0-4-0-0-4-0-|
|--0-0---0-0---0-|0---0-0---0---0-|--0-0---0-0---0-|--0-0---0-0---0-|

 E E E E E E E E  E E E E E E E E  E E E E E E E E  E E E  E E  E E  E 
|----------------|----------------|----------------|-------------------|
|----------------|----------------|----------------|-------------------|
|----------------|----------------|----------------|-------------------|
|----------------|----------------|----------------|8-7----7-----------|
|8-0-0-8-0-0-8-0-|0-8-0-0-8-0-8-0-|7-0-0-7-0-0-7-0-|----10---10-8-10-8-|
|--0-0---0-0---0-|0---0-0---0---0-|--0-0---0-0---0-|-------------------|

 E  E E E  E E E  E  E E  E E E  E E  E  E E E E E E E E  E E E E E E E E 
|-------------------|-------------------|----------------|----------------|
|-------------------|-------------------|----------------|----------------|
|10-----10-----10---|--10-----10---10---|9-----9-----9---|6-----6-----6---|
|-------------------|-------------------|----------------|----------------|
|8--0-0-8--0-0-8--0-|0-8--0-0-8--0-8--0-|7-0-0-7-0-0-7-0-|4-0-0-4-0-0-4-0-|
|---0-0----0-0----0-|0----0-0----0----0-|--0-0---0-0---0-|--0-0---0-0---0-|

 E  E E E  E E E  E  E E  E E E  E E  E  E E E E E E E E  E E E  E E  E E  E 
|-------------------|-------------------|----------------|-------------------|
|-------------------|-------------------|----------------|-------------------|
|10-----10-----10---|--10-----10---10---|9-----9-----9---|-------------------|
|-------------------|-------------------|----------------|8-7----7-----------|
|8--0-0-8--0-0-8--0-|0-8--0-0-8--0-8--0-|7-0-0-7-0-0-7-0-|----10---10-8-10-8-|
|---0-0----0-0----0-|0----0-0----0----0-|--0-0---0-0---0-|-------------------|


(Overcome, and overthrow...)

   E E E E E E E E  E E E E E E E E  E E E E E E E E  E E E E E E E E 
|------------------|----------------|----------------|----------------|
|------------------|----------------|----------------|----------------|
|o-----------------|----------------|----------------|----------------|
|o-----------------|----------------|----------------|----------------|
|--8-0-0-5-0-0-8-0-|0-5-0-0-8-0-5-0-|7-0-0-4-0-0-7-0-|0-4-0-0-7-0-4-0-|
|----0-0---0-0---0-|0---0-0---0---0-|--0-0---0-0---0-|0---0-0---0---0-|

 E E E E E E E E  E E E E E E E E  E E E E E E E E  E E E E E E E  E
|----------------|----------------|----------------|------------------|
|----------------|----------------|----------------|------------------|
|----------------|----------------|----------------|-----------------o|
|----------------|----------------|----------------|-----------------o|
|8-0-0-5-0-0-8-0-|0-5-0-0-8-0-5-0-|7-0-0-4-0-0-7-0-|0-7-0-7-8-0-10-0--|
|--0-0---0-0---0-|0---0-0---0---0-|--0-0---0-0---0-|0---0-----0----0--|

   Q   Q   Q   Q    Q   Q   Q   Q    Q   Q   Q   Q     Q   Q   Q   Q    Q   Q   H         W
|------------------|----------------|-----------------|----------------|----------------|-------|
|------------------|----------------|-----------------|----------------|----------------|-------|
|o-----------------|----------------|-----------------|----------------|----------------|------o| 2x
|o-----------------|----------------|-----------------|----------------|----------------|------o|
|--8---0---0---8---|0---0---7---0---|0---4---0---10---|8---0---0---8---|0---0---7-------|(7)----|
|------0---0-------|0---0-------0---|0-------0--------|----0---0-------|0---0-----------|-------|

   Q   Q   Q   Q    Q   Q   Q   Q    Q   Q   Q   Q           Q   Q   Q   Q    Q   Q   H     W      W+H
|------------------|----------------|------------------|    |----------------|------------|-------|--|
|------------------|----------------|------------------|    |----------------|------------|-------|--|
|o-----------------|----------------|-----------------o| 3x |----------------|------------|-------|--|
|o-----------------|----------------|-----------------o|    |----------------|------------|-------|--|
|--8---0---0---8---|0---0---7---0---|0---4---0---10----|    |8---0---0---8---|0---0---7---|(7)----|8-|
|------0---0-------|0---0-------0---|0-------0---------|    |----0---0-------|0---0-------|-------|--|


Bridge (I won't feel sorry... on 2nd time)

   Q   Q.    Q   E  Q   Q.    Q   E  Q   Q.    Q   E   Q    Q    Q    Q
|------------------|----------------|-----------------|--------------------|
|------------------|----------------|-----------------|--------------------|
|o-7---7-----7---7-|9---9-----9---9-|10--10----10--10-|12---12---15---14---|
|o-7---7-----7---7-|9---9-----9---9-|10--10----10--10-|12---12---15---14---|
|--5---5-----5---5-|7---7-----7---7-|8---8-----8---8--|10---10---13---12---| 
|------------------|----------------|-----------------|--------------------|

 Q   Q.    Q   E  Q   Q.    Q   E  Q   Q.    Q   E  Q   Q   Q   Q   
|----------------|----------------|----------------|----------------|
|----------------|----------------|----------------|----------------|
|7---7-----7---7-|6---6-----6---6-|3---3-----3---3-|2-------7---5--o|
|7---7-----7---7-|6---6-----6---6-|3---3-----3---3-|2---5---7---5--o|
|5---5-----5---5-|4---4-----4---4-|1---1-----1---1-|0---5---5---3---|
|----------------|----------------|----------------|----5-----------|


Chorus

   E E E E E E E E  E E E E E E E E  E E E E E E E E  E E E E E E E E  E E E E E E E E 
|------------------|----------------|----------------|----------------|----------------|
|------------------|----------------|----------------|----------------|----------------|
|o-7-7-7-7-7-7-7-7-|7-7-7-7-7-7-7-7-|----------------|----------------|----------------|
|o-7-7-7-7-7-7-7-7-|7-7-7-7-7-7-7-7-|8-8-8-8-8-8-8-8-|8-8-8-8-8-8-8-8-|7-7-7-7-7-7-7-7-|
|--5-5-5-5-5-5-5-5-|5-5-5-5-5-5-5-5-|8-8-8-8-8-8-8-8-|8-8-8-8-8-8-8-8-|7-7-7-7-7-7-7-7-| 
|------------------|----------------|8-8-8-8-8-8-8-8-|8-8-8-8-8-8-8-8-|7-7-7-7-7-7-7-7-|

                                                    4x
                 1st--------------------------------|----------------------------2nd
 E E E E E E E E  E E E E E E E E  E E E E E E E E  |W           H         E E Q
|----------------|----------------|-----------------|-----------|------------------|
|----------------|----------------|-----------------|-----------|------------------|
|----------------|----------------|----------------o|-----------|------------------|
|7-7-7-7-7-7-7-7-|5-5-5-5-5-5-5-5-|5-5-5-5-5-5-5-5-o|5----------|(5)-------5-7-8---|
|7-7-7-7-7-7-7-7-|5-5-5-5-5-5-5-5-|5-5-5-5-5-5-5-5--|5----------|(5)-------5-7-8---|
|7-7-7-7-7-7-7-7-|5-5-5-5-5-5-5-5-|5-5-5-5-5-5-5-5--|5----------|(5)-------5-7-8---|


Verse

Chorus (new 2nd ending)

Hold
|--------|
|--------|
|--------|
|5-------|
|5-------|
|5-------|


| /  slide up
| \  slide down
| h  hammer-on
| p  pull-off
| ~  vibrato
| +  harmonic
| x  Mute note





Comments


Popular Bleeding Through tabs & chords
Line In The Sand 2 Bass Tabs
Truth Bass Tabs
Turns Cold To The Touch Bass Tabs
For Love And Failing Tabs
Love Lost In A Hail Of Gunfire Tabs
Love Lost In A Hail Of Gunfire 1 Tabs
Love Lost In A Hail Of Gunfire 2 Tabs
On Wings Of Intro Tabs
Return To Sender Intro Tabs
Rise Tabs


Song lyrics



↑ Back to top | Tablatures and chords are parodies/interpretations of the original songs. You may use it for private study, scholarship, research or language learning purposes only
© 2014 AZChords.com Contact us | Privacy policy | DMCA | Add/correct tabs | Request tabs | Top 50 tabs