» » »

Bleeding Through, Rise Tabs (ver.1)

Artists:  A B C D E F G H I J K L M N O P Q R S T U V W X Y Z # 

Rise Tabs (ver.1)

Bleeding Through Tabs
 Rating:
4.3/5 (6 votes)
Rise lessons Tabs too difficult? Try these video lessons and learn fast
1
                DROP B


Riff 1
|---------------------------------------------------------------------|
|---------------------------------------------------------------------|
|---------------------------------------------------------------------|
|----------------------------------7----------------------------------|
|-----5---7---8---10---8---7---5-------10---8---7---10---8---7---<8>--|
|-0-0---0---0---0----0---0---0---0---0----0---0---0----0---0---0------|
  . .   .   .   .    .   .   .   .   .    .   .   .    .   .   .

Fill 1
|------------------|
|------------------|
|------------------|
|-8-7------7-5-----|
|-----10-8-----8-7-|
|------------------|


Riff 2
|---------------------------------|
|---------------------------------|
|---------------------------------|
|---------------------------------|
|-8-8-0-0-2-2-0-0-3-3-0-0-5-5-7-7-|
|-8-8-0-0-2-2-0-0-3-3-0-0-5-5-7-7-|
  . . . . . . . . . . . . . . . .

Riff 1
|---------------------------------------------------------------------|
|---------------------------------------------------------------------|
|---------------------------------------------------------------------|
|----------------------------------7----------------------------------|
|-----5---7---8---10---8---7---5-------10---8---7---10---8---7---<8>--|
|-0-0---0---0---0----0---0---0---0---0----0---0---0----0---0---0------|
  . .   .   .   .    .   .   .   .   .    .   .   .    .   .   .

Fill 1
|------------------|
|------------------|
|------------------|
|-8-7------7-5-----|
|-----10-8-----8-7-|
|------------------|


 Riff 3
|---------------------------------------------------------------------|
|---------------------------------------------------------------------|
|---------------------------------------------------------------------|
|-----333322225555-----333322227777-----555588883333-----55558888-----|
|---------------------------------------------------------------------|
|-0-0--------------0-0--------------0-0--------------0-0--------------|

Fill 1
|------------------|
|------------------|
|------------------|
|-8-7------7-5-----|
|-----10-8-----8-7-|
|------------------|
Riff 4
|------------------------------|
|------------------------------|
|-3-----5----------------------|
|-3-----5----------------------|
|-1-----3--5---8-7-0-0-7-5-0-0-|
|----------5---8-7-0-0-7-5-0-0-|
               . . . . . . . .
Riff 5
|--------------------------------------------------------------------|
|--------------------------------------------------------------------|
|----------------------------------------3----5----------------------|
|--------<12>--------------------<8>-<7>-3----5----------------------|
|-0---------------0--------8--7h8--------1----3-5----8-7-0-0-7-5-0-0-|
|-0--0-0------0-0-0--0-0------------------------5----8-7-0-0-7-5-0-0-|
     . .      . .    . .                             . . . . . . . .

Riff 1
|---------------------------------------------------------------------|
|---------------------------------------------------------------------|
|---------------------------------------------------------------------|
|----------------------------------7----------------------------------|
|-----5---7---8---10---8---7---5-------10---8---7---10---8---7---<8>--|
|-0-0---0---0---0----0---0---0---0---0----0---0---0----0---0---0------|
  . .   .   .   .    .   .   .   .   .    .   .   .    .   .   .

Fill 1
|------------------|
|------------------|
|------------------|
|-8-7------7-5-----|
|-----10-8-----8-7-|
|------------------|

Riff 2
|---------------------------------|
|---------------------------------|
|---------------------------------|
|---------------------------------|
|-8-8-0-0-2-2-0-0-3-3-0-0-5-5-7-7-|
|-8-8-0-0-2-2-0-0-3-3-0-0-5-5-7-7-|
  . . . . . . . . . . . . . . . .

|-------------------|-------------------------|
|-------------------|-------------------------|
|-------------------|-------------------------|
|-------------------|-------------------------|
|-00000-----00000---|-00000-00000-00000-00000-|
|-00000-----00000---|-00000-00000-00000-00000-|
  .....     .....     ..... ..... ..... .....

Gtr 1               Gtr 2
|------------------|-6-5-----5-3-----|
|------------------|-----8-6-----6-5-|
|------------------|-----------------|
|-8-7------7-5-----|-----------------|
|-----10-8-----8-7-|-----------------|
|------------------|-----------------|
            
Submit corrections

comments powered by Disqus
↑ Back to top | Bleeding Through Tabs for Rise. Lyrics for acoustic guitar and electric guitar. 1 Tablatures and chords are parodies/interpretations of the original songs. You may use it for private study, scholarship, research or language learning purposes only