» » »

Bleeding Through, Murder By Numbers Bass tabs (ver.1)

Artists:  A B C D E F G H I J K L M N O P Q R S T U V W X Y Z # 

Murder By Numbers Bass tabs (ver.1)

Bleeding Through Tabs
 Rating:
4/5 (4 votes)
Murder By Numbers lessons Tabs too difficult? Try these video lessons and learn fast
1
                -------------------------------------------------------------------------------
			     Murder by Numbers for Bass - Bleeding Through
-------------------------------------------------------------------------------

 

Tuning: Drop B ( Five stringer)

Here's the main riff
Part A
D|----------------------------------------------|
G|---555555--00---------------------------------|
A|---------------3333--2222---3333-77-555555-88-| x4
E|----------------------------------------------|
B|----------------------------------------------|

PartB
D|-----------------------------------------------------| 
G|-----------------------------------------------------|
A|-2--3--2----5--7--5----2--3--2---3-3---------2-------|  x2
E|------------------------------------3-2-1-----2-1-0--|
B|-----------------------------------------------------|

Play main riff again, then straight to Part C for sorta chorus part and little solo.  

Part c (" I won't remember your eyes....")
D|----------------------------------------------------------|
G|----------------------------------------------------------|
A|-0-0-5--0-5--0-5--0-5--0-5---0-0-5--0-5--0-7--0-5--0-5--0-|  x4
E|----------------------------------------------------------|
B|----------------------------------------------------------|

Bridge 
Part D
D|-------------|--------------------|
G|-------------|--------------------|
A|--1~-1~-1~-1~|1---0--1--0---4--2-3| x8
E|-------------|--------------------|
B|-------------|--------------------|

Part 2 of Bridge, heavy interlude.
D|--------------------------------------------------------------|
G|--------------------------------------------------------------|
A|--------------------------------------------------------------| x4
E|--------------------------------------------------------------|
B|00-4-3-2-3-4-3--00-4-3-2-3-4-3-00-4-3-2-3-4-3-04-00-3-00-2----|

After this go back to the main riff and playx4. Then it goes to Part C which you play x4.

End by by playing part B x4.

It's a pretty straightforward song. Enjoy!!


| /  slide up
| \  slide down
| h  hammer-on
| p  pull-off
| ~  vibrato
| +  harmonic
| x  Mute note
===============================================================================
            
Submit corrections

comments powered by Disqus
↑ Back to top | Bleeding Through Bass for Murder By Numbers. Lyrics for acoustic guitar and electric guitar. 1 Tablatures and chords are parodies/interpretations of the original songs. You may use it for private study, scholarship, research or language learning purposes only