>
 >
Love In Slow Motion

Love In Slow Motion Guitar Tabs

Bleeding Through - Love In Slow Motion chords, tabs, tablatures, lyrics

Guitar lessons | Add/correct | Request | Top 50 tabs Artists:  A B C D E F G H I J K L M N O P Q R S T U V W X Y Z 0-9

Love In Slow Motion Guitar Tabs – Bleeding Through

CD, Sheet music, Poster

Do you like Love In Slow Motion? Share with your friends now
Tabs
LOVE IN SLOW MOTION
As recorded by Bleeding Through
(From the 2006 Album THE TRUTH)


        

Words by Brandan Schieppati Music by Bleeding Through

Gtr I (B F# B E G# C#) - 'Scott Danough'
Gtr II (B F# B E G# C#) - 'Brian Leppke'

  Q=215
  Gtr I
  E E E Q.   Q    E E E Q.   Q    S S S S S S S S S S S S S S S S
|---------------|---------------|---------------------------------|
|---------------|---------------|---------------------------------|
|---------------|---------------|---------------------------------|
|---------------|---------------|---------------------------------|
|-1-0-0-1----3--|-1-0-0-3----4--|---------------------------------|
|-1-0-0-1----3--|-1-0-0-3----4--|-0-0-0-0-0-0-0-0-0-0-0-0-0-0-0-0-|
|
| Gtr II
| E E E Q.   Q    E E E Q.   Q    Q       H               Q
|---------------|---------------|---------------------------------|
|---------------|---------------|---------------------------------|
|---------------|---------------|---------------------------------|
|---------------|---------------|-0-------------------------------|
|-1-0-0-1----3--|-1-0-0-3----4--|-0-------------------------------|
|-1-0-0-1----3--|-1-0-0-3----4--|-0-------------------------------|


                                     TP
  E E E Q  Q  E   E E E E E E E E    H..       E
|---------------|-----------------|-----------------|
|---------------|-----------------|-----------------|
|---------------|-----------------|-----------------|
|---------------|-----------------|-----------------|
|---------------|-0---0---0---0---|-----------------|
|-1-0-0-1--3--0-|-0---0---0---0---|-12s========0----|
|
|                                    TP
| W               E E E E E E E E    H..       E
|---------------|-----------------|-----------------|
|---------------|-----------------|-----------------|
|---------------|-----------------|-----------------|
|---------------|-----------------|-----------------|
|---------------|-0---0---0---0---|-----------------|
|---------------|-0---0---0---0---|-12s========0----|


    S S S S S S S S S S S S S S S S   E E E Q  Q  E
||----------------------------------|---------------|
||o---------------------------------|---------------|
||----------------------------------|---------------|
||----------------------------------|---------------|
||o---------------------------------|---------------|
||--0-0-0-0-0-0-0-0-0-0-0-0-0-0-0-0-|-1-0-0-1--3--0-|
|
|   S S S S S S S S S S S S S S S S   E E E Q  Q  E
||----------------------------------|---------------|
||o---------------------------------|---------------|
||----------------------------------|---------------|
||----------------------------------|---------------|
||o---------------------------------|---------------|
||--0-0-0-0-0-0-0-0-0-0-0-0-0-0-0-0-|-1-0-0-1--3--0-|


  S S S S S S S S S S S S S S S S   E E E Q  Q  E
|---------------------------------|------------------|
|---------------------------------|------------------|
|---------------------------------|------------------|
|---------------------------------|------------------|
|---------------------------------|------------------|
|-0-0-0-0-0-0-0-0-0-0-0-0-0-0-0-0-|-1-0-0-1--3--0----|
|
| S S S S S S S S S S S S S S S S   E E E Q  Q  E
|---------------------------------|------------------|
|---------------------------------|------------------|
|---------------------------------|------------------|
|---------------------------------|------------------|
|---------------------------------|------------------|
|-0-0-0-0-0-0-0-0-0-0-0-0-0-0-0-0-|-1-0-0-1--3--0----|


  S S S S S S S S S S S S S S S S   E E E Q  Q  E
|---------------------------------|---------------|
|---------------------------------|---------------|
|---------------------------------|---------------|
|---------------------------------|---------------|
|---------------------------------|---------------|
|-0-0-0-0-0-0-0-0-0-0-0-0-0-0-0-0-|-1-0-0-1--3--0-|
|
| S S S S S S S S S S S S S S S S   E E E Q  Q  E
|---------------------------------|---------------|
|---------------------------------|---------------|
|---------------------------------|---------------|
|---------------------------------|---------------|
|---------------------------------|---------------|
|-0-0-0-0-0-0-0-0-0-0-0-0-0-0-0-0-|-1-0-0-1--3--0-|


  S S S S S S S S S S S S S S S S   E E E E E E E E
|---------------------------------|---------------------||
|---------------------------------|--------------------o||
|---------------------------------|---------------------||
|---------------------------------|---------------------||
|-----------------6---------------|--------------------o||
|-0-0-0-0-0-0-0-0---0-0-0-0-0-0-0-|-1-0-0-0-1-0-1-0-----||
|
| S S S S S S S S S S S S S S S S   E E E E E E E E
|---------------------------------|---------------------||
|---------------------------------|--------------------o||
|---------------------------------|---------------------||
|---------------------------------|---------------------||
|-----------------6---------------|--------------------o||
|-0-0-0-0-0-0-0-0---0-0-0-0-0-0-0-|-1-0-0-0-1-0-1-0-----||


    E E E E E E E E   E E E E E E E E   E E E E E E E E   E E E E E E E E
||------------------|-----------------|-----------------|------------------|
||o-----------------|-----------------|-----------------|------------------|
||------------------|-----------------|-----------------|------------------|
||------------------|-----------------|-----------------|------------------|
||o-8---8---8---8---|-8---8---8---8---|-7---7---7---7---|-7---7---7---7----|
||----0---0---0---0-|---0---0---0---0-|---0---0---0---0-|---0---0---0---0--|
|
|   E E E E E E E E   E E E E E E E E   E E E E E E E E   E E E E E E E E
||------------------|-----------------|-----------------|------------------|
||o-----------------|-----------------|-----------------|------------------|
||------------------|-----------------|-----------------|------------------|
||------------------|-----------------|-----------------|------------------|
||o-8---8---8---8---|-8---8---8---8---|-7---7---7---7---|-7---7---7---7----|
||----0---0---0---0-|---0---0---0---0-|---0---0---0---0-|---0---0---0---0--|


   E E  E E  E E  E E    E E  E E  E  E  E E
|---------------------|----------------------|
|---------------------|----------------------|
|---------------------|----------------------|
|---------------------|----------------------|
|-10---10---10---10---|-10---10---10-12-10---|
|----0----0----0----0-|----0----0----------0-|
|
|  E E  E E  E E  E E    E E  E E  E  E  E E
|---------------------|----------------------|
|---------------------|----------------------|
|---------------------|----------------------|
|---------------------|----------------------|
|-10---10---10---10---|-10---10---10-12-10---|
|----0----0----0----0-|----0----0----------0-|


  E E E E E E E E   E E E E E E E E
|-----------------|-----------------|
|-----------------|-----------------|
|-----------------|-----------------|
|-----------------|-----------------|
|-8---8---8---8---|-8---8---8---8---|
|---0---0---0---0-|---0---0---0---0-|
|
| E E E E E E E E   E E E E E E E E
|-----------------|-----------------|
|-----------------|-----------------|
|-----------------|-----------------|
|-----------------|-----------------|
|-8---8---8---8---|-8---8---8---8---|
|---0---0---0---0-|---0---0---0---0-|


  Q  Q  E E Q    Q  Q  E E Q
|--------------|---------------||
|--------------|--------------o||
|--------------|---------------||
|-5--5--5-5-5--|-7--7--7-7-7---||
|-3--3--3-3-3--|-5--5--5-5-5--o||
|--------------|---------------||
|
| Q  Q  E E Q    Q  Q  E E Q
|--------------|---------------||
|--------------|--------------o||
|--------------|---------------||
|-5--5--5-5-5--|-7--7--7-7-7---||
|-3--3--3-3-3--|-5--5--5-5-5--o||
|--------------|---------------||


    Q  Q  E E Q    Q  Q  E E Q    Q  Q  E E Q    Q  Q  E E Q    4x
||---------------|--------------|--------------|----------------||
||o--------------|--------------|--------------|---------------o||
||---------------|--------------|--------------|----------------||
||--7--7--7-7-7--|-7--7--7-7-7--|-5--5--5-5-5--|-5--5--5-5-5----||
||o-5--5--5-5-5--|-5--5--5-5-5--|-3--3--3-3-3--|-3--3--3-3-3---o||
||---------------|--------------|--------------|----------------||
|
|   Q  Q  E E Q    Q  Q  E E Q    Q  Q  E E Q    Q  Q  E E Q    4x
||---------------|--------------|--------------|----------------||
||o--------------|--------------|--------------|---------------o||
||---------------|--------------|--------------|----------------||
||--7--7--7-7-7--|-7--7--7-7-7--|-5--5--5-5-5--|-5--5--5-5-5----||
||o-5--5--5-5-5--|-5--5--5-5-5--|-3--3--3-3-3--|-3--3--3-3-3---o||
||---------------|--------------|--------------|----------------||


    Q  E E Q  E E   Q  E E Q  E E    Q  E E  Q  E E    Q  E E  Q   E E
||----------------|---------------|-----------------|-------------------|
||o---------------|---------------|-----------------|-------------------|
||----------------|---------------|-----------------|-------------------|
||--7------7------|-7------7S=9---|-10------10------|-10------10S=12----|
||o-5------5------|-5------5S=7---|--8-------8------|--8-------8S=10----|
||-----0-0----0-0-|----0-0------0-|-----0-0-----0-0-|-----0-0--------0--|
|
|   Q  E E Q  E E   Q  E E Q  E E    Q  E E  Q  E E    Q  E E  Q   E E
||----------------|---------------|-----------------|-------------------|
||o---------------|---------------|-----------------|-------------------|
||----------------|---------------|-----------------|-------------------|
||--7------7------|-7------7S=9---|-10------10------|-10------10S=12----|
||o-5------5------|-5------5S=7---|--8-------8------|--8-------8S=10----|
||-----0-0----0-0-|----0-0------0-|-----0-0-----0-0-|-----0-0--------0--|


  Q  E E Q  E E   Q  E E Q  E E   E E E E E E E E   E E E E E E E E
|---------------|---------------|-----------------|------------------||
|---------------|---------------|-----------------|-----------------o||
|---------------|---------------|-----------------|------------------||
|-7------7------|-7------7------|-5---5---5---5---|-3---3---3---3----||
|-5------5------|-5------5------|-3---3---3---3---|-1---1---1---1---o||
|----0-0----0-0-|----0-0----0-0-|---0---0---0---0-|---0---0---0---0--||
|
| Q  E E Q  E E   Q  E E Q  E E   E E E E E E E E   E E E E E E E E
|---------------|---------------|-----------------|------------------||
|---------------|---------------|-----------------|-----------------o||
|---------------|---------------|-----------------|------------------||
|-7------7------|-7------7------|-5---5---5---5---|-3---3---3---3----||
|-5------5------|-5------5------|-3---3---3---3---|-1---1---1---1---o||
|----0-0----0-0-|----0-0----0-0-|---0---0---0---0-|---0---0---0---0--||


    S S S S S S S S S S S S S S S S   E E E Q  Q  E
||----------------------------------|---------------|
||o---------------------------------|---------------|
||----------------------------------|---------------|
||----------------------------------|---------------|
||o---------------------------------|---------------|
||--0-0-0-0-0-0-0-0-0-0-0-0-0-0-0-0-|-1-0-0-1--3--0-|
|
|   S S S S S S S S S S S S S S S S   E E E Q  Q  E
||----------------------------------|---------------|
||o---------------------------------|---------------|
||----------------------------------|---------------|
||----------------------------------|---------------|
||o---------------------------------|---------------|
||--0-0-0-0-0-0-0-0-0-0-0-0-0-0-0-0-|-1-0-0-1--3--0-|


  S S S S S S S S S S S S S S S S   E E E Q  Q  E
|---------------------------------|------------------|
|---------------------------------|------------------|
|---------------------------------|------------------|
|---------------------------------|------------------|
|---------------------------------|------------------|
|-0-0-0-0-0-0-0-0-0-0-0-0-0-0-0-0-|-1-0-0-1--3--0----|
|
| S S S S S S S S S S S S S S S S   E E E Q  Q  E
|---------------------------------|------------------|
|---------------------------------|------------------|
|---------------------------------|------------------|
|---------------------------------|------------------|
|---------------------------------|------------------|
|-0-0-0-0-0-0-0-0-0-0-0-0-0-0-0-0-|-1-0-0-1--3--0----|


  S S S S S S S S S S S S S S S S   E E E Q  Q  E
|---------------------------------|---------------|
|---------------------------------|---------------|
|---------------------------------|---------------|
|---------------------------------|---------------|
|---------------------------------|---------------|
|-0-0-0-0-0-0-0-0-0-0-0-0-0-0-0-0-|-1-0-0-1--3--0-|
|
| S S S S S S S S S S S S S S S S   E E E Q  Q  E
|---------------------------------|---------------|
|---------------------------------|---------------|
|---------------------------------|---------------|
|---------------------------------|---------------|
|---------------------------------|---------------|
|-0-0-0-0-0-0-0-0-0-0-0-0-0-0-0-0-|-1-0-0-1--3--0-|


  S S S S S S S S S S S S S S S S   E E E E E E E E     3x
|---------------------------------|---------------------||
|---------------------------------|--------------------o||
|---------------------------------|---------------------||
|---------------------------------|---------------------||
|-----------------6---------------|--------------------o||
|-0-0-0-0-0-0-0-0---0-0-0-0-0-0-0-|-1-0-0-0-1-0-1-0-----||
|
| S S S S S S S S S S S S S S S S   E E E E E E E E     3x
|---------------------------------|---------------------||
|---------------------------------|--------------------o||
|---------------------------------|---------------------||
|---------------------------------|---------------------||
|-----------------6---------------|--------------------o||
|-0-0-0-0-0-0-0-0---0-0-0-0-0-0-0-|-1-0-0-0-1-0-1-0-----||


    E E E E E E E E   E E E E E E E E   E E E E E E E E   E E E E E E E E
||------------------|-----------------|-----------------|----------------|
||o-----------------|-----------------|-----------------|----------------|
||------------------|-----------------|-----------------|----------------|
||------------------|-----------------|-----------------|----------------|
||o-8---8---8---8---|-8---8---8---8---|-7---7---7---7---|-7---7---7---7--|
||----0---0---0---0-|---0---0---0---0-|---0---0---0---0-|---0---0---0---0|
|
|   E E E E E E E E   E E E E E E E E   E E E E E E E E   E E E E E E E E
||------------------|-----------------|-----------------|----------------|
||o-----------------|-----------------|-----------------|----------------|
||------------------|-----------------|-----------------|----------------|
||------------------|-----------------|-----------------|----------------|
||o-8---8---8---8---|-8---8---8---8---|-7---7---7---7---|-7---7---7---7--|
||----0---0---0---0-|---0---0---0---0-|---0---0---0---0-|---0---0---0---0|


   E E  E E  E E  E E    E E  E E  E  E  E E
|---------------------|----------------------|
|---------------------|----------------------|
|---------------------|----------------------|
|---------------------|----------------------|
|-10---10---10---10---|-10---10---10-12-10---|
|----0----0----0----0-|----0----0----------0-|
|
|  E E  E E  E E  E E    E E  E E  E  E  E E
|---------------------|----------------------|
|---------------------|----------------------|
|---------------------|----------------------|
|---------------------|----------------------|
|-10---10---10---10---|-10---10---10-12-10---|
|----0----0----0----0-|----0----0----------0-|


  E E E E E E E E   E E E E E E E E
|-----------------|-----------------|
|-----------------|-----------------|
|-----------------|-----------------|
|-----------------|-----------------|
|-8---8---8---8---|-8---8---8---8---|
|---0---0---0---0-|---0---0---0---0-|
|
| E E E E E E E E   E E E E E E E E
|-----------------|-----------------|
|-----------------|-----------------|
|-----------------|-----------------|
|-----------------|-----------------|
|-8---8---8---8---|-8---8---8---8---|
|---0---0---0---0-|---0---0---0---0-|


  Q  Q  E E Q    Q  Q  E E Q
|--------------|---------------||
|--------------|--------------o||
|--------------|---------------||
|-5--5--5-5-5--|-7--7--7-7-7---||
|-3--3--3-3-3--|-5--5--5-5-5--o||
|--------------|---------------||
|
| Q  Q  E E Q    Q  Q  E E Q
|--------------|---------------||
|--------------|--------------o||
|--------------|---------------||
|-5--5--5-5-5--|-7--7--7-7-7---||
|-3--3--3-3-3--|-5--5--5-5-5--o||
|--------------|---------------||


    Q  Q  E E Q    Q  Q  E E Q    Q  Q  E E Q    Q  Q  E E Q    4x
||---------------|--------------|--------------|----------------||
||o--------------|--------------|--------------|---------------o||
||---------------|--------------|--------------|----------------||
||--7--7--7-7-7--|-7--7--7-7-7--|-5--5--5-5-5--|-5--5--5-5-5----||
||o-5--5--5-5-5--|-5--5--5-5-5--|-3--3--3-3-3--|-3--3--3-3-3---o||
||---------------|--------------|--------------|----------------||
|
|   Q  Q  E E Q    Q  Q  E E Q    Q  Q  E E Q    Q  Q  E E Q    4x
||---------------|--------------|--------------|----------------||
||o--------------|--------------|--------------|---------------o||
||---------------|--------------|--------------|----------------||
||--7--7--7-7-7--|-7--7--7-7-7--|-5--5--5-5-5--|-5--5--5-5-5----||
||o-5--5--5-5-5--|-5--5--5-5-5--|-3--3--3-3-3--|-3--3--3-3-3---o||
||---------------|--------------|--------------|----------------||


    Q  E E Q  E E   Q  E E Q  E E    Q  E E  Q  E E    Q  E E  Q   E E
||----------------|---------------|-----------------|-------------------|
||o---------------|---------------|-----------------|-------------------|
||----------------|---------------|-----------------|-------------------|
||--7------7------|-7------7S=9---|-10------10------|-10------10S=12----|
||o-5------5------|-5------5S=7---|--8-------8------|--8-------8S=10----|
||-----0-0----0-0-|----0-0------0-|-----0-0-----0-0-|-----0-0--------0--|
|
|   Q  E E Q  E E   Q  E E Q  E E    Q  E E  Q  E E    Q  E E  Q   E E
||----------------|---------------|-----------------|-------------------|
||o---------------|---------------|-----------------|-------------------|
||----------------|---------------|-----------------|-------------------|
||--7------7------|-7------7S=9---|-10------10------|-10------10S=12----|
||o-5------5------|-5------5S=7---|--8-------8------|--8-------8S=10----|
||-----0-0----0-0-|----0-0------0-|-----0-0-----0-0-|-----0-0--------0--|


  Q  E E Q  E E   Q  E E Q  E E   E E E E E E E E   E E E E E E E E
|---------------|---------------|-----------------|------------------||
|---------------|---------------|-----------------|-----------------o||
|---------------|---------------|-----------------|------------------||
|-7------7------|-7------7------|-5---5---5---5---|-3---3---3---3----||
|-5------5------|-5------5------|-3---3---3---3---|-1---1---1---1---o||
|----0-0----0-0-|----0-0----0-0-|---0---0---0---0-|---0---0---0---0--||
|
| Q  E E Q  E E   Q  E E Q  E E   E E E E E E E E   E E E E E E E E
|---------------|---------------|-----------------|------------------||
|---------------|---------------|-----------------|-----------------o||
|---------------|---------------|-----------------|------------------||
|-7------7------|-7------7------|-5---5---5---5---|-3---3---3---3----||
|-5------5------|-5------5------|-3---3---3---3---|-1---1---1---1---o||
|----0-0----0-0-|----0-0----0-0-|---0---0---0---0-|---0---0---0---0--||


  S S S S S S S S S S S S S S S S   E E E Q  Q  E
|---------------------------------|---------------|
|---------------------------------|---------------|
|---------------------------------|---------------|
|---------------------------------|---------------|
|---------------------------------|---------------|
|-0-0-0-0-0-0-0-0-0-0-0-0-0-0-0-0-|-1-0-0-1--3--0-|
|
| S S S S S S S S S S S S S S S S   E E E Q  Q  E
|---------------------------------|---------------|
|---------------------------------|---------------|
|---------------------------------|---------------|
|---------------------------------|---------------|
|---------------------------------|---------------|
|-0-0-0-0-0-0-0-0-0-0-0-0-0-0-0-0-|-1-0-0-1--3--0-|


  S S S S S S S S S S S S S S S S   E E E Q  Q  E
|---------------------------------|------------------|
|---------------------------------|------------------|
|---------------------------------|------------------|
|---------------------------------|------------------|
|---------------------------------|------------------|
|-0-0-0-0-0-0-0-0-0-0-0-0-0-0-0-0-|-1-0-0-1--3--0----|
|
| S S S S S S S S S S S S S S S S   E E E Q  Q  E
|---------------------------------|------------------|
|---------------------------------|------------------|
|---------------------------------|------------------|
|---------------------------------|------------------|
|---------------------------------|------------------|
|-0-0-0-0-0-0-0-0-0-0-0-0-0-0-0-0-|-1-0-0-1--3--0----|


  S S S S S S S S S S S S S S S S   E E E Q  Q  E
|---------------------------------|---------------|
|---------------------------------|---------------|
|---------------------------------|---------------|
|---------------------------------|---------------|
|---------------------------------|---------------|
|-0-0-0-0-0-0-0-0-0-0-0-0-0-0-0-0-|-1-0-0-1--3--0-|
|
| S S S S S S S S S S S S S S S S   E E E Q  Q  E
|---------------------------------|---------------|
|---------------------------------|---------------|
|---------------------------------|---------------|
|---------------------------------|---------------|
|---------------------------------|---------------|
|-0-0-0-0-0-0-0-0-0-0-0-0-0-0-0-0-|-1-0-0-1--3--0-|


  S S S S S S S S S S S S S S S S   E E E E E E E E
|---------------------------------|--------------------|
|---------------------------------|--------------------|
|---------------------------------|--------------------|
|---------------------------------|--------------------|
|-----------------6---------------|--------------------|
|-0-0-0-0-0-0-0-0---0-0-0-0-0-0-0-|-1-0-0-0-1-0-1-0----|
|
| S S S S S S S S S S S S S S S S   E E E E E E E E
|---------------------------------|--------------------|
|---------------------------------|--------------------|
|---------------------------------|--------------------|
|---------------------------------|--------------------|
|-----------------6---------------|--------------------|
|-0-0-0-0-0-0-0-0---0-0-0-0-0-0-0-|-1-0-0-0-1-0-1-0----|


  S S S S S S S S S S S S S S S S   E E E E E E E E
|---------------------------------|--------------------|
|---------------------------------|--------------------|
|---------------------------------|--------------------|
|---------------------------------|--------------------|
|-----------------6---------------|--------------------|
|-0-0-0-0-0-0-0-0---0-0-0-0-0-0-0-|-1-0-0-0-1-0-1-0----|
|
| S S S S S S S S S S S S S S S S   E E E E E E E E
|---------------------------------|--------------------|
|---------------------------------|--------------------|
|---------------------------------|--------------------|
|---------------------------------|--------------------|
|-----------------6---------------|--------------------|
|-0-0-0-0-0-0-0-0---0-0-0-0-0-0-0-|-1-0-0-0-1-0-1-0----|


  S S S S S S S S S S E Q    W          S S S S S S S S H      Q.   Q.   Q
|--------------------------|----------|----------------------|--------------|
|--------------------------|----------|----------------------|--------------|
|--------------------------|----------|----------------------|--------------|
|--------------------------|----------|----------------------|-3----3----3--|
|-0-0-0-0-0-0-0-0-0--------|----------|-0-0-0-0-0-0-0-0------|-1----1----1--|
|-0-0-0-0-0-0-0-0-0--------|----------|-0-0-0-0-0-0-0-0------|-1----1----1--|
|
| S S S S S S S S S S E Q    W          S S S S S S S S H      Q.   Q.   Q
|--------------------------|----------|----------------------|--------------|
|--------------------------|----------|----------------------|--------------|
|--------------------------|----------|----------------------|--------------|
|--------------------------|----------|----------------------|-3----3----3--|
|-0-0-0-0-0-0-0-0-0--------|----------|-0-0-0-0-0-0-0-0------|-1----1----1--|
|-0-0-0-0-0-0-0-0-0--------|----------|-0-0-0-0-0-0-0-0------|-1----1----1--|


  S S S S S S S S S S E Q    W
|--------------------------|----------|
|--------------------------|----------|
|--------------------------|----------|
|--------------------------|----------|
|-0-0-0-0-0-0-0-0-0--------|----------|
|-0-0-0-0-0-0-0-0-0--------|----------|
|
| S S S S S S S S S S E Q    W
|--------------------------|----------|
|--------------------------|----------|
|--------------------------|----------|
|--------------------------|----------|
|-0-0-0-0-0-0-0-0-0--------|----------|
|-0-0-0-0-0-0-0-0-0--------|----------|


  S S S S S S S S H      E. E. E E. E. E
|----------------------|-------------------|
|----------------------|-------------------|
|----------------------|-------------------|
|----------------------|-------------------|
|-0-0-0-0-0-0-0-0------|-1--0--0-1--0--0---|
|-0-0-0-0-0-0-0-0------|-1--0--0-1--0--0---|
|
| S S S S S S S S H      E. E. E E. E. E
|----------------------|-------------------|
|----------------------|-------------------|
|----------------------|-------------------|
|----------------------|-------------------|
|-0-0-0-0-0-0-0-0------|-1--0--0-1--0--0---|
|-0-0-0-0-0-0-0-0------|-1--0--0-1--0--0---|


    W          W          S S S S S S S S H      Q.   Q.   Q
||-----------|----------|----------------------|-------------|
||o----------|----------|----------------------|-------------|
||-----------|----------|----------------------|-------------|
||-----------|----------|----------------------|-3----3----3-|
||o----------|----------|-0-0-0-0-0-0-0-0------|-1----1----1-|
||-----------|----------|-0-0-0-0-0-0-0-0------|-1----1----1-|
|
|   W          W          S S S S S S S S H      Q.   Q.   Q
||-----------|----------|----------------------|-------------|
||o----------|----------|----------------------|-------------|
||-----------|----------|----------------------|-------------|
||-----------|----------|----------------------|-3----3----3-|
||o----------|----------|-0-0-0-0-0-0-0-0------|-1----1----1-|
||-----------|----------|-0-0-0-0-0-0-0-0------|-1----1----1-|


  S S S S S S S S S S E Q    W
|--------------------------|----------|
|--------------------------|----------|
|--------------------------|----------|
|--------------------------|----------|
|-0-0-0-0-0-0-0-0-0--------|----------|
|-0-0-0-0-0-0-0-0-0--------|----------|
|
| S S S S S S S S S S E Q    W
|--------------------------|----------|
|--------------------------|----------|
|--------------------------|----------|
|--------------------------|----------|
|-0-0-0-0-0-0-0-0-0--------|----------|
|-0-0-0-0-0-0-0-0-0--------|----------|


  S S S S S S S S H      E. E. E E. E. E
|----------------------|--------------------||
|----------------------|-------------------o||
|----------------------|--------------------||
|----------------------|--------------------||
|-0-0-0-0-0-0-0-0------|-1--0--0-1--0--0---o||
|-0-0-0-0-0-0-0-0------|-1--0--0-1--0--0----||
|
| S S S S S S S S H      E. E. E E. E. E
|----------------------|--------------------||
|----------------------|-------------------o||
|----------------------|--------------------||
|----------------------|--------------------||
|-0-0-0-0-0-0-0-0------|-1--0--0-1--0--0---o||
|-0-0-0-0-0-0-0-0------|-1--0--0-1--0--0----||


  W          +W           +W           +H     E E Q
|----------|------------|------------|---------------|
|----------|------------|------------|---------------|
|----------|------------|------------|---------------|
|-0--------|-(0)--------|-(0)--------|-(0)----0------|
|-0--------|-(0)--------|-(0)--------|-(0)----0------|
|-0--------|-(0)--------|-(0)--------|-(0)----0------|
|
| W          +W            W           +H     E E Q
|----------|------------|------------|---------------|
|----------|------------|------------|---------------|
|----------|------------|--7---------|-(7)-----------|
|-0--------|-(0)--------|------------|--------0------|
|-0--------|-(0)--------|--5---------|-(5)----0------|
|-0--------|-(0)--------|------------|--------0------|


    Q  Q  E E Q    Q  Q  E E Q    Q  Q  E E Q    Q  Q  E E Q    4x
||---------------|--------------|--------------|----------------||
||o--------------|--------------|--------------|---------------o||
||---------------|--------------|--------------|----------------||
||--7--7--7-7-7--|-7--7--7-7-7--|-5--5--5-5-5--|-5--5--5-5-5----||
||o-5--5--5-5-5--|-5--5--5-5-5--|-3--3--3-3-3--|-3--3--3-3-3---o||
||---------------|--------------|--------------|----------------||
|
|   Q  Q  E E Q    Q  Q  E E Q    Q  Q  E E Q    Q  Q  E E Q    4x
||---------------|--------------|--------------|----------------||
||o--------------|--------------|--------------|---------------o||
||---------------|--------------|--------------|----------------||
||--7--7--7-7-7--|-7--7--7-7-7--|-5--5--5-5-5--|-5--5--5-5-5----||
||o-5--5--5-5-5--|-5--5--5-5-5--|-3--3--3-3-3--|-3--3--3-3-3---o||
||---------------|--------------|--------------|----------------||


    Q  E E Q  E E   Q  E E Q  E E    Q  E E  Q  E E    Q  E E  Q   E E
||----------------|---------------|-----------------|-------------------|
||o---------------|---------------|-----------------|-------------------|
||----------------|---------------|-----------------|-------------------|
||--7------7------|-7------7S=9---|-10------10------|-10------10S=12----|
||o-5------5------|-5------5S=7---|--8-------8------|--8-------8S=10----|
||-----0-0----0-0-|----0-0------0-|-----0-0-----0-0-|-----0-0--------0--|
|
|   Q  E E Q  E E   Q  E E Q  E E    Q  E E  Q  E E    Q  E E  Q   E E
||----------------|---------------|-----------------|-------------------|
||o---------------|---------------|-----------------|-------------------|
||----------------|---------------|-----------------|-------------------|
||--7------7------|-7------7S=9---|-10------10------|-10------10S=12----|
||o-5------5------|-5------5S=7---|--8-------8------|--8-------8S=10----|
||-----0-0----0-0-|----0-0------0-|-----0-0-----0-0-|-----0-0--------0--|


  Q  E E Q  E E   Q  E E Q  E E   E E E E E E E E   E E E E E E E E
|---------------|---------------|-----------------|------------------||
|---------------|---------------|-----------------|-----------------o||
|---------------|---------------|-----------------|------------------||
|-7------7------|-7------7------|-5---5---5---5---|-3---3---3---3----||
|-5------5------|-5------5------|-3---3---3---3---|-1---1---1---1---o||
|----0-0----0-0-|----0-0----0-0-|---0---0---0---0-|---0---0---0---0--||
|
| Q  E E Q  E E   Q  E E Q  E E   E E E E E E E E   E E E E E E E E
|---------------|---------------|-----------------|------------------||
|---------------|---------------|-----------------|-----------------o||
|---------------|---------------|-----------------|------------------||
|-7------7------|-7------7------|-5---5---5---5---|-3---3---3---3----||
|-5------5------|-5------5------|-3---3---3---3---|-1---1---1---1---o||
|----0-0----0-0-|----0-0----0-0-|---0---0---0---0-|---0---0---0---0--||


    Q  E E Q  E E   Q  E E Q  E E    Q   E  E  Q   E  E    Q   E  E  Q   E E
||----------------|---------------|---------------------|---------------------|
||o---------------|---------------|---------------------|---------------------|
||----------------|---------------|---------------------|---------------------|
||--7--7-7-7--7-7-|-7--7-7-7S=9---|-10--10-10-10--10-10-|-10--10-10-10S=12----|
||o-5--5-5-5--5-5-|-5--5-5-5S=7---|--8---8--8--8---8--8-|--8---8--8--8S=10----|
||----------------|-------------0-|---------------------|------------------0--|
|
|   Q  E E Q  E E   Q  E E Q  E E    Q   E  E  Q   E  E    Q   E  E  Q   E E
||----------------|---------------|---------------------|---------------------|
||o---------------|---------------|---------------------|---------------------|
||----------------|---------------|---------------------|---------------------|
||--7--7-7-7--7-7-|-7--7-7-7S=9---|-10--10-10-10--10-10-|-10--10-10-10S=12----|
||o-5--5-5-5--5-5-|-5--5-5-5S=7---|--8---8--8--8---8--8-|--8---8--8--8S=10----|
||----------------|-------------0-|---------------------|------------------0--|


  Q  E E Q  E E   Q  E E Q  E E   E E E E E E E E   E E E E E E E E
|---------------|---------------|-----------------|------------------||
|---------------|---------------|-----------------|-----------------o||
|---------------|---------------|-----------------|------------------||
|-7--7-7-7--7-7-|-7--7-7-7--7-7-|-5-5-5-5-5-5-5-5-|-3-3-3-3-3-3-3-3--||
|-5--5-5-5--5-5-|-5--5-5-5--5-5-|-3-3-3-3-3-3-3-3-|-1-1-1-1-1-1-1-1-o||
|---------------|---------------|-----------------|------------------||
|
| Q  E E Q  E E   Q  E E Q  E E   E E E E E E E E   E E E E E E E E
|---------------|---------------|-----------------|------------------||
|---------------|---------------|-----------------|-----------------o||
|---------------|---------------|-----------------|------------------||
|-7--7-7-7--7-7-|-7--7-7-7--7-7-|-5-5-5-5-5-5-5-5-|-3-3-3-3-3-3-3-3--||
|-5--5-5-5--5-5-|-5--5-5-5--5-5-|-3-3-3-3-3-3-3-3-|-1-1-1-1-1-1-1-1-o||
|---------------|---------------|-----------------|------------------||


  W          +W           +W           +W
|----------|------------|------------|--------*|
|----------|------------|------------|--------*|
|----------|------------|------------|--------*|
|-0--------|-(0)--------|-(0)--------|-(0)----*|
|-0--------|-(0)--------|-(0)--------|-(0)----*|
|-0--------|-(0)--------|-(0)--------|-(0)----*|
|
| W          +W           +W           +W
|----------|------------|------------|--------*|
|----------|------------|------------|--------*|
|----------|------------|------------|--------*|
|-0--------|-(0)--------|-(0)--------|-(0)----*|
|-0--------|-(0)--------|-(0)--------|-(0)----*|
|-0--------|-(0)--------|-(0)--------|-(0)----*|



Duration Legend
---------------
W - whole; H - half; Q - quarter; E - 8th; S - 16th; T - 32nd; X - 64th; a - acciaccatura
+ - note tied to previous; . - note dotted; .. - note double dotted
Uncapitalized letters represent notes that are staccato (1/2 duration)
Irregular groupings are notated above the duration line
Duration letters will always appear directly above the note/fret number it represents the
duration for.  Duration letters with no fret number below them represent rests.  Multi-
bar rests are notated in the form Wxn, where n is the number of bars to rest for.  Low
melody durations appear below the staff

Tablature Legend
----------------
 h   - hammer-on
 p   - pull-off
 b   - bend
 pb  - pre-bend
 r   - bend release (if no number after the r, then release immediately)
 /\  - slide into or out of (from/to "nowhere")
 s   - legato slide
 S   - shift slide
 - natural harmonic
[n]  - artificial harmonic
n(n) - tapped harmonic
 ~   - vibrato
 tr  - trill
 T   - tap
 TP  - trem. picking
 PM  - palm muting
\n/  - tremolo bar dip; n = amount to dip
 \n  - tremolo bar down
 n/  - tremolo bar up
/n\  - tremolo bar inverted dip
 =   - hold bend; also acts as connecting device for hammers/pulls
 <> - volume swell (louder/softer)
 x   - on rhythm slash represents muted slash
 o   - on rhythm slash represents single note slash

Misc Legend
-----------
 |  - bar
||  - double bar
||o - repeat start
o|| - repeat end
*|  - double bar (ending)
 :  - bar (freetime)
 $  - Segno
 &  - Coda
Tempo markers -  = BPM(8/16=s8/s16), where s8 = swing 8ths, s16 = swing 16ths





Comments


Popular Bleeding Through tabs & chords
Hemlock Society Bass Tabs
Love Lost In A Hail Of Gunfire Bass Tabs
Love Lost In A Hail Of Gunfire 1 Bass Tabs
Love Lost In A Hail Of Gunfire Drum Tabs
Hollywood Prison Tabs
Love Lost In A Hail Of Gunfire Tabs
Revenge I Seek Tabs
Rise Tabs
Truth Tabs
Turns Cold To The Touch Tabs


Song lyrics



↑ Back to top | Tablatures and chords are parodies/interpretations of the original songs. You may use it for private study, scholarship, research or language learning purposes only
© 2014 AZChords.com Contact us | Privacy policy | DMCA | Add/correct tabs | Request tabs | Top 50 tabs