>
 >
Kill To Believe

Kill To Believe Guitar Tabs

Bleeding Through - Kill To Believe chords, tabs, tablatures, lyrics

Guitar lessons | Add/correct | Request | Top 50 tabs Artists:  A B C D E F G H I J K L M N O P Q R S T U V W X Y Z 0-9

Kill To Believe Guitar Tabs – Bleeding Through

CD, Sheet music, Poster

Do you like Kill To Believe? Share with your friends now
Tabs
                              KILL TO BELIEVE
                              Bleeding Through
                      (From The 2005 Album The Truth)



Gtr 1 - Tuning Drop B - (B F# B E G# C#)

/ - SLIDE UP TO          h - HAMMER ON
\ - SLIDE DOWN TO        p - PULL OF
~ - HOLD NOTE            * - PALM MUTE
t - TREMOLO PICKING     [] - ARTIFICAL PINCH HARMONIC

THIS IS WHAT I CAN MAKE OUT OF IT!

RATE AND COMMENT PLEASE! =D


  Gtr 2
|------------------|------------------|------------------|-----------------|
|------------------|------------------|------------------|-----------------|
|------------------|------------------|------------------|-----------------|
|-00-0-------------|------------------|------------------|-----------------|
|-00-0-------------|------------------|------------------|-45454/78787-----|
|-00-0-------------|------------------|------------------|-----------------|
  ** 

  Gtr 1 
|------------------|------------------|------------------|-----------------|
|------------------|------------------|------------------|-----------------|
|------------------|------------------|------------------|-----------------|
|-7\6--------------|-7\6---10\9---7\6-|-7\6--------------|-----------------|
|-5\4--------------|-5\4---8-\7---5\4-|-5\4--------------|-----------------|
|-----000000000000-|-----0------0-----|-----000000000000-|-89898/1011101110|
      ************       *      *           ************

  Gtr 2 (PLAY THIS SECTION x4)
|------------------|------------------|------------------|-----------------|
|------------------|------------------|------------------|-----------------|
|------------------|------------------|------------------|-----------------|
|-7\6--------------|-7\6---10\9---7\6-|-7\6--------------|-----------------|
|-5\4--------------|-5\4---8-\7---5\4-|-5\4--------------|-45454/78787-----|
|-----000000000000-|-----0------0-----|-----000000000000-|-----------------|
      ************       *      *           ************

  Gtr 1 
|------------------|------------------|------------------|-----------------|
|------------------|------------------|------------------|-----------------|
|------------------|------------------|------------------|-----------------|
|-7\6--------------|-7\6---10\9---7\6-|-7\6--------------|-----------------|
|-5\4--------------|-5\4---8-\7---5\4-|-5\4--------------|-----------------|
|-----000000000000-|-----0------0-----|-----000000000000-|-89898/1011101110|
      ************       *      *           ************
 
  Gtr 1 & 2
|-------------------|---------------|-------------------|---------------|
|-------------------|---------------|-------------------|---------------|
|-------------------|---------------|-------------------|---------------|
|-------------------|---------------|-------------------|---------------|
|-3-3-2-3-3-2-3-3-2-|-3-3-3-3---3---|-3-3-2-3-3-2-3-3-2-|-3-3-2-3---3---|
|-3-3-2-3-3-2-3-3-2-|-3-3-2-3-2-3-2-|-3-3-2-3-3-2-3-3-2-|-3-3-2-3-2-3-2-|
  * * * * * * * * *   * * * * * * *   * * * * * * * * *   * * * * * * *

  Gtr 2
|-------------------|---------------|-------------------|-----------------|
|-------------------|---------------|-------------------|-----------------|
|-------------------|---------------|-------------------|-----------------|
|-------------------|---------------|-------------------|-----------------|
|-3-3-2-3-3-2-3-3-2-|-3-3-3-3---3---|-3-3-2-3-3-2-3-3-2-|-45454/78787-----|
|-3-3-2-3-3-2-3-3-2-|-3-3-2-3-2-3-2-|-3-3-2-3-3-2-3-3-2-|-----------------|
  * * * * * * * * *   * * * * * * *   * * * * * * * * *      

  Gtr 1
|-------------------|---------------|-------------------|-----------------|
|-------------------|---------------|-------------------|-----------------|
|-------------------|---------------|-------------------|-----------------|
|-------------------|---------------|-------------------|-----------------|
|-3-3-2-3-3-2-3-3-2-|-3-3-3-3---3---|-3-3-2-3-3-2-3-3-2-|-----------------|
|-3-3-2-3-3-2-3-3-2-|-3-3-2-3-2-3-2-|-3-3-2-3-3-2-3-3-2-|-89898/1011101110|
  * * * * * * * * *   * * * * * * *   * * * * * * * * *

  Gtr 2 (PLAY THIS SECTION x2)
|------------------|------------------|------------------|-----------------|
|------------------|------------------|------------------|-----------------|
|------------------|------------------|------------------|-----------------|
|-7\6--------------|-7\6---10\9---7\6-|-7\6--------------|-----------------|
|-5\4--------------|-5\4---8-\7---5\4-|-5\4--------------|-45454/78787-----|
|-----000000000000-|-----0------0-----|-----000000000000-|-----------------|
      ************       *      *           ************

  Gtr 1 
|------------------|------------------|------------------|-----------------|
|------------------|------------------|------------------|-----------------|
|------------------|------------------|------------------|-----------------|
|-7\6--------------|-7\6---10\9---7\6-|-7\6--------------|-----------------|
|-5\4--------------|-5\4---8-\7---5\4-|-5\4--------------|-----------------|
|-----000000000000-|-----0------0-----|-----000000000000-|-89898/1011101110|
      ************       *      *           ************

  Gtr 2
|-------------------|---------------|-------------------|-----------------|
|-------------------|---------------|-------------------|-----------------|
|-------------------|---------------|-------------------|-----------------|
|-------------------|---------------|-------------------|-----------------|
|-3-3-2-3-3-2-3-3-2-|-3-3-3-3---3---|-3-3-2-3-3-2-3-3-2-|-45454/78787-----|
|-3-3-2-3-3-2-3-3-2-|-3-3-2-3-2-3-2-|-3-3-2-3-3-2-3-3-2-|-----------------|
  * * * * * * * * *   * * * * * * *   * * * * * * * * *      

  Gtr 1
|-------------------|---------------|-------------------|-----------------|
|-------------------|---------------|-------------------|-----------------|
|-------------------|---------------|-------------------|-----------------|
|-------------------|---------------|-------------------|-----------------|
|-3-3-2-3-3-2-3-3-2-|-3-3-3-3---3---|-3-3-2-3-3-2-3-3-2-|-----------------|
|-3-3-2-3-3-2-3-3-2-|-3-3-2-3-2-3-2-|-3-3-2-3-3-2-3-3-2-|-89898/1011101110|
  * * * * * * * * *   * * * * * * *   * * * * * * * * *

  Gtr 1 & 2
|-------------------|---------------|-------------------|-------------|
|-------------------|---------------|-------------------|-------------|
|-------------------|---------------|-------------------|-------------|
|-------------------|---------------|-------------------|-------------|
|-2-2-1-2-2-1-2-2-1-|-2-2-1-2---2---|-2-2-1-2-2-1-2-2-1-|-8-----7-----|
|-2-2-1-2-2-1-2-2-1-|-2-2-1-2-1-2-1-|-2-2-1-2-2-1-2-2-1-|-8-----7-----|
  * * * * * * * * *   * * * * * * *   * * * * * * * * *    

  Gtr 1 & 2
|-----------------|-----------------|-----------------|------------------|
|-----------------|-----------------|-----------------|------------------|
|-----------------|-----------------|-----------------|------------------|
|-5---5-5-5-5-5-5-|-5-5-5-5-5-5-5-5-|-5-5-5-5-5-5-5-5-|-5-5-5-5-5-5-5-5--|
|-5---5-5-5-5-5-5-|-5-5-5-5-5-5-5-5-|-5-5-5-5-5-5-5-5-|-5-5-5-5-5-5-5-5--|
|-5---5-5-5-5-5-5-|-5-5-5-5-5-5-5-5-|-5-5-5-5-5-5-5-5-|-5-5-5-5-5-5-5-5--|

  Gtr 1 & 2
|-----------------|-----------------|-----------------|------------------|
|-----------------|-----------------|-----------------|------------------|
|-----------------|-----------------|-----------------|------------------|
|-1-1-1-1-1-1-1-1-|-1-1-1-1-1-1-1-1-|-1-1-1-1-1-1-1-1-|-1-1-1-1-1-1-1-1--|
|-1-1-1-1-1-1-1-1-|-1-1-1-1-1-1-1-1-|-1-1-1-1-1-1-1-1-|-1-1-1-1-1-1-1-1--|
|-1-1-1-1-1-1-1-1-|-1-1-1-1-1-1-1-1-|-1-1-1-1-1-1-1-1-|-1-1-1-1-1-1-1-1--|

  Gtr 1 & 2
|-----------------|-----------------|-----------------|------------------|
|-----------------|-----------------|-----------------|------------------|
|-----------------|-----------------|-----------------|------------------|
|-5-5-5-5-5-5-5-5-|-5-5-5-5-5-5-5-5-|-5-5-5-5-5-5-5-5-|-8-8-8-8-8-8-8-8--|
|-5-5-5-5-5-5-5-5-|-5-5-5-5-5-5-5-5-|-5-5-5-5-5-5-5-5-|-8-8-8-8-8-8-8-8--|
|-5-5-5-5-5-5-5-5-|-5-5-5-5-5-5-5-5-|-5-5-5-5-5-5-5-5-|-8-8-8-8-8-8-8-8--|

  Gtr 1 & 2
|-----------------|-----------------|-----------------|------------------|
|-----------------|-----------------|-----------------|------------------|
|-----------------|-----------------|-----------------|------------------|
|-1-1-1-1-1-1-1-1-|-1-1-1-1-1-1-1-1-|-1-1-1-1-1-1-1-1-|-3-3-3-3-3-3-3-3--|
|-1-1-1-1-1-1-1-1-|-1-1-1-1-1-1-1-1-|-1-1-1-1-1-1-1-1-|-3-3-3-3-3-3-3-3--|
|-1-1-1-1-1-1-1-1-|-1-1-1-1-1-1-1-1-|-1-1-1-1-1-1-1-1-|-3-3-3-3-3-3-3-3--|

  Gtr 2 (PLAY THIS SECTION x2)
|---------------|----------------|---------------|-----------------|
|---------------|----------------|---------------|-----------------|
|---------------|----------------|---------------|-----------------|
|-5----5----5---|-5--------------|-1----1----1---|-1---------------|
|-5----5----5---|-5--------------|-1----1----1---|-1---------------|
|-5----5----5---|-5--------------|-1----1----1---|-1---------------|

  Gtr 1
|---------------|----------------|---------------|---------------|
|---------------|----------------|---------------|---------------|
|---------------|----------------|---------------|---------------|
|-5----5----5---|-5--------------|-1----1----1---|---------------|
|-5----5----5---|-5--------------|-1----1----1---|---------------|
|-5----5----5---|-5--------------|-1----1----1---|-0-0-1-1-0-0---|
                                                   * * * * * *

  Gtr 1 & 2
|---------------|---------------|---------------|---------------|
|---------------|---------------|---------------|---------------|
|---------------|---------------|---------------|---------------|
|-5----5----5---|-5----8--------|-1----1----1---|-1----3--------|
|-5----5----5---|-5----8--------|-1----1----1---|-1----3--------|
|-5----5----5---|-5----8--------|-1----1----1---|-1----3--------|

  Gtr 2
|------------------|------------------|------------------|-----------------|
|------------------|------------------|------------------|-----------------|
|------------------|------------------|------------------|-----------------|
|-7\6--------------|------------------|------------------|-----------------|
|-5\4--------------|------------------|------------------|-45454/78787-----|
|------------------|------------------|------------------|-----------------|

  Gtr 1 
|------------------|------------------|------------------|-----------------|
|------------------|------------------|------------------|-----------------|
|------------------|------------------|------------------|-----------------|
|-7\6--------------|-7\6---10\9---7\6-|-7\6--------------|-----------------|
|-5\4--------------|-5\4---8-\7---5\4-|-5\4--------------|-----------------|
|-----000000000000-|-----0------0-----|-----000000000000-|-89898/1011101110|
      ************       *      *           ************

  Gtr 2 (PLAY THIS SECTION x4)
|------------------|------------------|------------------|-----------------|
|------------------|------------------|------------------|-----------------|
|------------------|------------------|------------------|-----------------|
|-7\6--------------|-7\6---10\9---7\6-|-7\6--------------|-----------------|
|-5\4--------------|-5\4---8-\7---5\4-|-5\4--------------|-45454/78787-----|
|-----000000000000-|-----0------0-----|-----000000000000-|-----------------|
      ************       *      *           ************

  Gtr 1 
|------------------|------------------|------------------|-----------------|
|------------------|------------------|------------------|-----------------|
|------------------|------------------|------------------|-----------------|
|-7\6--------------|-7\6---10\9---7\6-|-7\6--------------|-----------------|
|-5\4--------------|-5\4---8-\7---5\4-|-5\4--------------|-----------------|
|-----000000000000-|-----0------0-----|-----000000000000-|-89898/1011101110|
      ************       *      *           ************

  Gtr 2
|-------------------|---------------|-------------------|-----------------|
|-------------------|---------------|-------------------|-----------------|
|-------------------|---------------|-------------------|-----------------|
|-------------------|---------------|-------------------|-----------------|
|-3-3-2-3-3-2-3-3-2-|-3-3-3-3---3---|-3-3-2-3-3-2-3-3-2-|-45454/78787-----|
|-3-3-2-3-3-2-3-3-2-|-3-3-2-3-2-3-2-|-3-3-2-3-3-2-3-3-2-|-----------------|
  * * * * * * * * *   * * * * * * *   * * * * * * * * *      

  Gtr 1
|-------------------|---------------|-------------------|-----------------|
|-------------------|---------------|-------------------|-----------------|
|-------------------|---------------|-------------------|-----------------|
|-------------------|---------------|-------------------|-----------------|
|-3-3-2-3-3-2-3-3-2-|-3-3-3-3---3---|-3-3-2-3-3-2-3-3-2-|-----------------|
|-3-3-2-3-3-2-3-3-2-|-3-3-2-3-2-3-2-|-3-3-2-3-3-2-3-3-2-|-89898/1011101110|
  * * * * * * * * *   * * * * * * *   * * * * * * * * *

  Gtr 1 & 2
|-------------------|---------------|-------------------|-------------|
|-------------------|---------------|-------------------|-------------|
|-------------------|---------------|-------------------|-------------|
|-------------------|---------------|-------------------|-------------|
|-2-2-1-2-2-1-2-2-1-|-2-2-1-2---2---|-2-2-1-2-2-1-2-2-1-|-8-----7-----|
|-2-2-1-2-2-1-2-2-1-|-2-2-1-2-1-2-1-|-2-2-1-2-2-1-2-2-1-|-8-----7-----|
  * * * * * * * * *   * * * * * * *   * * * * * * * * *

  Gtr 1 & 2
|-----------------|-----------------|-----------------|------------------|
|-----------------|-----------------|-----------------|------------------|
|-----------------|-----------------|-----------------|------------------|
|-5---5-5-5-5-5-5-|-5-5-5-5-5-5-5-5-|-5-5-5-5-5-5-5-5-|-5-5-5-5-5-5-5-5--|
|-5---5-5-5-5-5-5-|-5-5-5-5-5-5-5-5-|-5-5-5-5-5-5-5-5-|-5-5-5-5-5-5-5-5--|
|-5---5-5-5-5-5-5-|-5-5-5-5-5-5-5-5-|-5-5-5-5-5-5-5-5-|-5-5-5-5-5-5-5-5--|

  Gtr 1 & 2
|-----------------|-----------------|-----------------|------------------|
|-----------------|-----------------|-----------------|------------------|
|-----------------|-----------------|-----------------|------------------|
|-1-1-1-1-1-1-1-1-|-1-1-1-1-1-1-1-1-|-1-1-1-1-1-1-1-1-|-1-1-1-1-1-1-1-1--|
|-1-1-1-1-1-1-1-1-|-1-1-1-1-1-1-1-1-|-1-1-1-1-1-1-1-1-|-1-1-1-1-1-1-1-1--|
|-1-1-1-1-1-1-1-1-|-1-1-1-1-1-1-1-1-|-1-1-1-1-1-1-1-1-|-1-1-1-1-1-1-1-1--|

  Gtr 1 & 2
|-----------------|-----------------|-----------------|------------------|
|-----------------|-----------------|-----------------|------------------|
|-----------------|-----------------|-----------------|------------------|
|-5-5-5-5-5-5-5-5-|-5-5-5-5-5-5-5-5-|-5-5-5-5-5-5-5-5-|-8-8-8-8-8-8-8-8--|
|-5-5-5-5-5-5-5-5-|-5-5-5-5-5-5-5-5-|-5-5-5-5-5-5-5-5-|-8-8-8-8-8-8-8-8--|
|-5-5-5-5-5-5-5-5-|-5-5-5-5-5-5-5-5-|-5-5-5-5-5-5-5-5-|-8-8-8-8-8-8-8-8--|

  Gtr 1 & 2
|-----------------|-----------------|-----------------|------------------|
|-----------------|-----------------|-----------------|------------------|
|-----------------|-----------------|-----------------|------------------|
|-1-1-1-1-1-1-1-1-|-1-1-1-1-1-1-1-1-|-1-1-1-1-1-1-1-1-|-3-3-3-3-3-3-3-3--|
|-1-1-1-1-1-1-1-1-|-1-1-1-1-1-1-1-1-|-1-1-1-1-1-1-1-1-|-3-3-3-3-3-3-3-3--|
|-1-1-1-1-1-1-1-1-|-1-1-1-1-1-1-1-1-|-1-1-1-1-1-1-1-1-|-3-3-3-3-3-3-3-3--|

  Gtr 2 (PLAY THIS SECTION x2)
|---------------|----------------|---------------|-----------------|
|---------------|----------------|---------------|-----------------|
|---------------|----------------|---------------|-----------------|
|-5----5----5---|-5--------------|-1----1----1---|-1---------------|
|-5----5----5---|-5--------------|-1----1----1---|-1---------------|
|-5----5----5---|-5--------------|-1----1----1---|-1---------------|

  Gtr 1
|---------------|----------------|---------------|---------------|
|---------------|----------------|---------------|---------------|
|---------------|----------------|---------------|---------------|
|-5----5----5---|-5--------------|-1----1----1---|---------------|
|-5----5----5---|-5--------------|-1----1----1---|---------------|
|-5----5----5---|-5--------------|-1----1----1---|-0-0-1-1-0-0---|
                                                   * * * * * *

  Gtr 1 & 2
|---------------|---------------|---------------|---------------|
|---------------|---------------|---------------|---------------|
|---------------|---------------|---------------|---------------|
|-5----5----5---|-5----8--------|-1----1----1---|-1----3--------|
|-5----5----5---|-5----8--------|-1----1----1---|-1----3--------|
|-5----5----5---|-5----8--------|-1----1----1---|-1----3--------|

  Gtr 2
|------------------|--------------|------------------|-----------|
|------------------|--------------|------------------|-----------|
|------------------|--------------|------------------|-----------|
|-00----00---------|--------------|-00----00----00---|-00--------|
|-00----00---------|--------------|-00----00----00---|-00--------|
|-00----00---------|--------------|-00----00----00---|-00--------|
  **    **                          **    **    **     **

  Gtr 1
|------------------|--------------|------------------|-----------|
|------------------|--------------|------------------|-----------|
|------------------|--------------|------------------|-----------|
|-00----00----00---|-00-----------|------------------|-----------|
|-00----00----00---|-00-----------|------------------|-----------|
|-00----00----00---|-00-----------|------------------|-----------|
  **    **    **     **

  Gtr 1 & 2
|------------------|--------------|-------------------|------------|
|------------------|--------------|-------------------|------------|
|------------------|--------------|-------------------|------------|
|-22----22----22---|-22-----------|-22----22-----22---|-22---------|
|-22----22----22---|-22-----------|-22----22-----22---|-22---------|
|-22----22----22---|-22-----------|-22----22-----22---|-22---------|
  **    **    **     **             **    **     **     **

  Gtr 1 & 2
|------------------|--------------|------------------|------------------|
|------------------|--------------|------------------|------------------|
|------------------|--------------|------------------|------------------|
|-22----22----22---|-22-----------|-22----22----22---|-22----8\\\\0-----|
|-22----22----22---|-22-----------|-22----22----22---|-22----8\\\\0-----|
|-22----22----22---|-22-----------|-22----22----22---|-22----8\\\\0-----|
  **    **    **     **             **    **    **     **

  Gtr 1 & 2 (PLAY x4)
|---------------|-------------|----------------|--------------------------|
|---------------|-------------|----------------|--------------------------|
|---------------|-------------|----------------|--------------------------|
|-0----0----0---|-0-----------|-0----0-----0---|-0----8\\\\0----6\\\\5----|
|-0----0----0---|-0-----------|-0----0-----0---|-0----8\\\\0----6\\\\5----|
|-0----0----0---|-0-----------|-0----0-----0---|-0----8\\\\0----6\\\\5----|
  *    *    *     *             *    *     *     *         *

  Gtr 2
|---------------|--------------------|-------------------------|-------------------------|
|-7-7-7-7-7-7-7-|-10-10-10-10-9-9-9-9|-12-12-12-12-14-14-14-14-|-15-15-15-15-----------|
|---------------|--------------------|-------------------------|-------------------------|
|-5-5-5-5-5-5-5-|-8--8--8--8-7-7-7-7-|-10-10-10-10-12-12-12-12-|-13-13-13-13-----------|
|---------------|--------------------|-------------------------|----------------13\\\\0--|
|---------------|--------------------|-------------------------|----------------13\\\\0--|

  Gtr 1
|---------------|--------------------|-------------------------|-------------------------|
|---------------|--------------------|-------------------------|-------------------------|
|---------------|--------------------|-------------------------|-------------------------|
|-5-------------|--------------------|-------------------------|-------------------------|
|-5-------------|--------------------|-------------------------|----------------13\\\0---|
|-5-------------|--------------------|-------------------------|----------------13\\\0---|

  Gtr 1 & 2
|-----------------|-----------------|-----------------|------------------|
|-----------------|-----------------|-----------------|------------------|
|-----------------|-----------------|-----------------|------------------|
|-5---5-5-5-5-5-5-|-5-5-5-5-5-5-5-5-|-5-5-5-5-5-5-5-5-|-5-5-5-5-5-5-5-5--|
|-5---5-5-5-5-5-5-|-5-5-5-5-5-5-5-5-|-5-5-5-5-5-5-5-5-|-5-5-5-5-5-5-5-5--|
|-5---5-5-5-5-5-5-|-5-5-5-5-5-5-5-5-|-5-5-5-5-5-5-5-5-|-5-5-5-5-5-5-5-5--|

  Gtr 1 & 2
|-----------------|-----------------|-----------------|------------------|
|-----------------|-----------------|-----------------|------------------|
|-----------------|-----------------|-----------------|------------------|
|-1-1-1-1-1-1-1-1-|-1-1-1-1-1-1-1-1-|-1-1-1-1-1-1-1-1-|-1-1-1-1-1-1-1-1--|
|-1-1-1-1-1-1-1-1-|-1-1-1-1-1-1-1-1-|-1-1-1-1-1-1-1-1-|-1-1-1-1-1-1-1-1--|
|-1-1-1-1-1-1-1-1-|-1-1-1-1-1-1-1-1-|-1-1-1-1-1-1-1-1-|-1-1-1-1-1-1-1-1--|

  Gtr 1 & 2
|-----------------|-----------------|-----------------|------------------|
|-----------------|-----------------|-----------------|------------------|
|-----------------|-----------------|-----------------|------------------|
|-5-5-5-5-5-5-5-5-|-5-5-5-5-5-5-5-5-|-5-5-5-5-5-5-5-5-|-8-8-8-8-8-8-8-8--|
|-5-5-5-5-5-5-5-5-|-5-5-5-5-5-5-5-5-|-5-5-5-5-5-5-5-5-|-8-8-8-8-8-8-8-8--|
|-5-5-5-5-5-5-5-5-|-5-5-5-5-5-5-5-5-|-5-5-5-5-5-5-5-5-|-8-8-8-8-8-8-8-8--|

  Gtr 1 & 2
|-----------------|-----------------|-----------------|------------------|
|-----------------|-----------------|-----------------|------------------|
|-----------------|-----------------|-----------------|------------------|
|-1-1-1-1-1-1-1-1-|-1-1-1-1-1-1-1-1-|-1-1-1-1-1-1-1-1-|-3-3-3-3-3-3-3-3--|
|-1-1-1-1-1-1-1-1-|-1-1-1-1-1-1-1-1-|-1-1-1-1-1-1-1-1-|-3-3-3-3-3-3-3-3--|
|-1-1-1-1-1-1-1-1-|-1-1-1-1-1-1-1-1-|-1-1-1-1-1-1-1-1-|-3-3-3-3-3-3-3-3--|

  Gtr 2 (PLAY THIS SECTION x2)
|---------------|----------------|---------------|-----------------|
|---------------|----------------|---------------|-----------------|
|---------------|----------------|---------------|-----------------|
|-5----5----5---|-5--------------|-1----1----1---|-1---------------|
|-5----5----5---|-5--------------|-1----1----1---|-1---------------|
|-5----5----5---|-5--------------|-1----1----1---|-1---------------|

  Gtr 1
|---------------|----------------|---------------|---------------|
|---------------|----------------|---------------|---------------|
|---------------|----------------|---------------|---------------|
|-5----5----5---|-5--------------|-1----1----1---|---------------|
|-5----5----5---|-5--------------|-1----1----1---|---------------|
|-5----5----5---|-5--------------|-1----1----1---|-0-0-1-1-0-0---|
                                                   * * * * * *

  Gtr 1 & 2
|---------------|---------------|---------------|---------------|
|---------------|---------------|---------------|---------------|
|---------------|---------------|---------------|---------------|
|-5----5----5---|-5----8--------|-1----1----1---|-1----3--------|
|-5----5----5---|-5----8--------|-1----1----1---|-1----3--------|
|-5----5----5---|-5----8--------|-1----1----1---|-1----3--------|

  Gtr 1 & 2
|-----------------|-----------------|-----------------|------------------|
|-----------------|-----------------|-----------------|------------------|
|-----------------|-----------------|-----------------|------------------|
|-5-5-5-5-5-5-5-5-|-5-5-5-5-5-5-5-5-|-1-1-1-1-1-1-1-1-|-1-1-1-1-1-1-1-1--|
|-5-5-5-5-5-5-5-5-|-5-5-5-5-5-5-5-5-|-1-1-1-1-1-1-1-1-|-1-1-1-1-1-1-1-1--|
|-5-5-5-5-5-5-5-5-|-5-5-5-5-5-5-5-5-|-1-1-1-1-1-1-1-1-|-1-1-1-1-1-1-1-1--|

  Gtr 1 & 2
|-----------------|-----------------|-----------------|------------------|
|-----------------|-----------------|-----------------|------------------|
|-----------------|-----------------|-----------------|------------------|
|-5-5-5-5-5-5-5-5-|-8-8-8-8-8-8-8-8-|-1-1-1-1-1-1-1-1-|-3-3-3-3-3-3-3-3--|
|-5-5-5-5-5-5-5-5-|-8-8-8-8-8-8-8-8-|-1-1-1-1-1-1-1-1-|-3-3-3-3-3-3-3-3--|
|-5-5-5-5-5-5-5-5-|-8-8-8-8-8-8-8-8-|-1-1-1-1-1-1-1-1-|-3-3-3-3-3-3-3-3--|

  Gtr 1 & 2
|----------------|------------|---------------|----------|
|----------------|------------|---------------|----------|
|----------------|------------|---------------|----------|
|-0----00----0---|------------|---------------|----------|
|-0----00----0---|------------|---------------|----------|
|-0----00----0---|------------|---------------|----------|
       **        





Comments


Popular Bleeding Through tabs & chords
Line In The Sand Bass Tabs
Love Lost In A Hail Of Gunfire Bass Tabs
Love Lost In A Hail Of Gunfire Drum Tabs
Hollywood Prison Tabs
Love Lost In A Hail Of Gunfire 2 Tabs
Return To Sender Intro 1 Tabs
Revenge I Seek Tabs
Rise Tabs
Tragedy Of Empty Streets Tabs
Turns Cold To The Touch Tabs


Song lyrics



↑ Back to top | Tablatures and chords are parodies/interpretations of the original songs. You may use it for private study, scholarship, research or language learning purposes only
© 2014 AZChords.com Contact us | Privacy policy | DMCA | Add/correct tabs | Request tabs | Top 50 tabs