» » »

Bleeding Through, Hollywood Prison Tabs (ver.1)

Artists:  A B C D E F G H I J K L M N O P Q R S T U V W X Y Z # 

Hollywood Prison Tabs (ver.1)

Bleeding Through Tabs
 Rating:
4/5 (4 votes)
Hollywood Prison lessons Tabs too difficult? Try these video lessons and learn fast
1
                Band : Bleeding Through
Song : Hollywood Prison
Tuning is in Drop B I believe 2 steps down

This is one of my favorite Bleeding through songs, critisize nicely, this is my first 
but it sounds pretty good to me.


Pretty easy song to play but it's still fun and hardcore. Have fun and enjoy.


The palm mutes in the beginning have kind of a tremelo sound to them so it's sort of a 
palm mute. Not very fast though.

Intro:
|--------------------------------------------------------------------------|
|--------------------------------------------------------------------------|
|--------------------------------------------------------------------------|
|--------------------------------------------------------------------------|
|-5-------10--------7------------------------------------------------------|
|---0-0-0----0-0-0----------2--3--2--0-------------------------------------|
    PM PM    PM PM          PM PM PM PM


"GO!"

Verse:
|--------------------------------------------------------------------------|
|--------------------------------------------------------------------------|
|--------------------------------------------------------------------------|
|--------------------------------------------------------------------------|
|-5-------10-------7-------------------------------------------------------|
|---0-0-0----0-0-0----------2--3--2--3--5--3--2--0-------------------------|
    PM PM    PM  PM         PM PM PM PM PM PM PM PM

|--------------------------------------------------------------------------|
|--------------------------------------------------------------------------|
|--------------------------------------------------------------------------|
|--------------------------------------------------------------------------|
|-5-------10-------7-------------------------------------------------------|
|---0-0-0----0-0-0----------2--3--2--3--5--3--2--0---0 *let ring*-7-2-5-2--|
    PM PM    PM PM          PM PM PM PM PM PM PM PM

(0:15)    "Since you left you've found myself..."
|------------------------------------------------------------------|
|------------------------------------------------------------------|
|------------------------------------------------------------------|
|------------------------------------------------------------------|
|-5-------10-------7-----------------------------------------------|
|---0-0-0----0-0-0----------2--3--2--3--5--3--2--0-----------------|*2 times*
    PM PM    PM PM          PM PM PM PM PM PM PM PM

(0:23)    "Without you my skies are always grey"
|------------------------------------------------------------------|
|------------------------------------------------------------------|
|------------------------------------------------------------------|
|------------------------------------------------------------------|
|------------------------------------------------------------------|
|-0-0-0-----0-0-0-----0-0-0------2--3--2--3--5--3--2--0------------|*2 times*

(0:32)     "What can I say that hasn't been said before"
|------------------------------------------------------------------|
|------------------------------------------------------------------|
|------------------------------------------------------------------|
|------------------------------------------------------------------|
|-5-------10-------7-----------------------------------------------|
|---0-0-0----0-0-0----------2--3--2--3--5--3--2--0-----------------|*4 times*
    PM PM    PM PM          PM PM PM PM PM PM PM PM

Chorus (0:49)
|---------------------------------------------------------------------|
|-------------------------------10ph----------------------------------|
|-----------------------------------------------------------------10ph| (2xs)
|-8-8-8-8-8-8-8-8-0-0-0-0-0-0-0-0--8-8-8-8-8-8-8-8-0-0-0-0-0-0-0-0----|
|-8-8-8-8-8-8-8-8-0-0-0-0-0-0-0-0--8-8-8-8-8-8-8-8-0-0-0-0-0-0-0-0----|
|-8-8-8-8-8-8-8-8-0-0-0-0-0-0-0-0--8-8-8-8-8-8-8-8-0-0-0-0-0-0-0-0----|


(1:05)         "You can take my pain"
|---------------------------------------------------------------------|
|---------------------------------------------------------------------|
|---------------------------------------------------------------------|
|-------------------------------8--7--5--3~---------------------------|
|-------------------------------8--7--5--3~---------------------------|(6xs)
|--00-0*ring*//-00-0*ring*------8--7--5--3~---------------------------|


(1:31)         "What did i say that..."

|---------------------------------------------------------------------|
|---------------------------------------------------------------------|
|---------------------------------------------------------------------|
|---------------------------------------------------------------------|
|15p--12p---15p-----5-------10-------7--------------------------------|(4xs)
(little fill in)------0-0-0----0-0-0-----2--3--2--3--5--3--2--0-------|

(1:48)          "Without you my skies are always grey"
|---------------------------------------------------------------------|
|---------------------------------------------------------------------|
|---------------------------------------------------------------------|
|---------------------------------------------------------------------|
|--0--0--0---0--0--0---0--0--0----------------------------------------|(2xs)
|--0--0--0---0--0--0---0--0--0-----2-3-2-3-5-3-2-0--------------------|
   PM PM PM  PM PM PM PM PM PM     PM PM PM PM PM


(1:57)          "You can take my pain"

|---------------------------------------------------------------------|
|---------------------------------------------------------------------|
|-------------------------------8--7--5--3~---------------------------|
|-------------------------------8--7--5--3~---------------------------|(4xs)
|--00-0*ring*//-00-0*ring*------8--7--5--3~---------------------------|


(2:13)
|---------------------------------------------------------------------|
|---17--18--15--17~15--17--18--13~--11--13--15--10 (dive with wammy)--|
|---------------------------------------------------------------------|
|---------------------------------------------------------------------|
|---------------------------------------------------------------------|
|---------------------------------------------------------------------|

Outro: (2:31)      "You can take my pain"
|---------------------------------------------------------------------|
|---------------------------------------------------------------------|
|-------------------------------8--7--5--3~---------------------------|
|-------------------------------8--7--5--3~---------------------------|(4xs)
|--00-0*ring*//-00-0*ring*------8--7--5--3~---------------------------|
            
Submit corrections

comments powered by Disqus
↑ Back to top | Bleeding Through Tabs for Hollywood Prison. Lyrics for acoustic guitar and electric guitar. 1 Tablatures and chords are parodies/interpretations of the original songs. You may use it for private study, scholarship, research or language learning purposes only