» » »

Bleeding Through, For Love And Failing Tabs (ver.1)

Artists:  A B C D E F G H I J K L M N O P Q R S T U V W X Y Z # 

For Love And Failing Tabs (ver.1)

Bleeding Through Tabs
Rating:
4/5 (3 votes)
For Love And Failing lessons Tabs too difficult? Try these video lessons and learn fast
                -------------------------------------------------------------------------------------------------------|
Bleeding Through: "For Love And Failing"
-------------------------------------------------------------------------------------------------------|

Tuning: Drop C (From low to high: C-G-C-F-A-D)

I know that a lot of this tab needs fixing, this is just a rough version.  I haven't
the song in a while.  But this is the basic idea, and a better version will be posted as
as I have access to the song and time to fix it.  Enjoy!


"I don't give a f**k!"
|-------------------------------------------|
|-------------------------------------------|
|-------------------------------------------|  x2
|-------------------------------------------|
|--5-6-5-6-8-9-55---------------------------|
|-0-0-0-0-0-0-0-----------------------------|
  . . . . . . .

|-----------------------------------------|
|-----------------------------------------|
|-----------------------------------------|   x2
|-----------------------------------------|
|-0--5-6---6h8--8h9---6h8-----------------|
|-0-0-0---0----0----0---------------------|
    . .   .    .    .

Repeat those two riffs, so in total you should've played each x4.

"I can see through your eyes" (Here I've just posted the chord pattern, I'll let you 
how many times to strum each chord.)
|---------------------------------------|
|---------------------------------------|
|---------------------------------------| x2
|-7-----6-------------------------------|
|-5-----4---5---4-----------------------|
|-----------5---4-----------------------|

Here, you again repeat the two intro riffs twice each.

"Cut you open to expose your insides" (Here, again, I've only tabbed out each chord, not 
many times to play them.)

|---------------------------------------------------------------|
|---------------------------------------------------------------|
|---------------------------------------------------------------| x2
|-------8---7---------------------------------------------------|
|-5-----6---5-----6-5-3-5-(Only play this on the last of the 2x)|
|-5-------------------------------------------------------------|

|---------------------------------------------------------------|
|---------------------------------------------------------------|
|---------------------------------------------------------------| x2
|-------8---7---------------------------------------------------|
|-2-----6---5----6-5-3-5--(Only play this on the last of the 2x)|
|-2-------------------------------------------------------------|

(Breakdown) "...and I'm taking you on"

|-------------------------------------------|
|-------------------------------------------|
|-------------------------------------------|
|-------------------------------------------|
|-3-2-0-2-----------------------------------|
|-3-2-0-2-000-000---------------------------|
          ... ...

|------------------------------------------------------------|
|------------------------------------------------------------|
|------------------------------------------------------------|
|------------------------------------------------------------|  x2
|------------------------------------------------------------|
|-000-000-000-000------000-000-000-000-0h2h3h5-6p3h6p2-------|
  ... ... ... ...      ... ... ... ...

Here there's a short interlude with the keyboards leading over the top of the guitars.
haven't figured out this part yet but it will be in the next tab, along with the
transcribed for guitar.

be pretty easy to figure out.

This is a kick ass song, sorry it has to be such a rough version for now.  Enjoy it and
back for updates.  Also, e-mail me corrections on the parts you see here and I'll
them in the next tab, along with giving you credit, if I haven't already corrected them myself.
            
Submit corrections

comments powered by Disqus
↑ Back to top | Bleeding Through Tabs for For Love And Failing. Lyrics for acoustic guitar and electric guitar. Tablatures and chords are parodies/interpretations of the original songs. You may use it for private study, scholarship, research or language learning purposes only