>
 >
You Should Be Ashamed Of Myself

You Should Be Ashamed Of Myself Guitar Tabs

Bled - You Should Be Ashamed Of Myself chords, tabs, tablatures, lyrics

Guitar lessons | Add/correct | Request | Top 50 tabs Artists:  A B C D E F G H I J K L M N O P Q R S T U V W X Y Z 0-9

You Should Be Ashamed Of Myself Guitar Tabs – Bled

CD, Sheet music, Poster

Do you like You Should Be Ashamed Of Myself? Share with your friends now
Tabs

YOU SHOULD BE ASHAMED OF MYSELF
As recorded by The Bled
(From the 2007 Album SILENT TREATMENT)

	

Words and Music by The Bled

Gtr I (D G C F A D) - 'Left Channel'
Gtr II (D G C F A D) - 'Right Channel'
Gtr III (D G C F A D) - 'Guitar III'

 Intro
  Q=158
  E BsEbE EmE   Em  E   EmE C/E5EsEm4
 4/4
  Gtr II
  E E E E E E E E   E E E E E E E E
|-0-0-0-0-3-0-0-3-|-0-0-3-0-8-7-5-3-|
|-5-0-4-5-5-5-5-5-|-5-5-5-5-5-5-5-5-|
|-----------------|-----------------|
|-----------------|-----------------|
|-----------------|-----------------|
|-----------------|-----------------|


  E BsEbE EmE   Em  E   EmE Bb
  E E E E E E E E   E E E E E    E E E a
|-0-0-0-0-3-0-0-3-|-0-0-3-0---------------|
|-5-0-4-5-5-5-5-5-|-5-5-5-5-0----0-0-0----|
|-----------------|---------3b4==3-3-3-xr-|
|-----------------|-----------------------|
|-----------------|-----------------------|
|-----------------|-----------------------|


  E BsEbE EmE   Em  E   EmE C/E5EsEm4 E BsEbE EmE
                                     3/4
  E E E E E E E E   E E E E E E E E   E E E E E E
|-0-0-0-0-3-0-0-3-|-0-0-3-0-8-7-5-3-|-0-0-0-0-3-0-|
|-5-0-4-5-5-5-5-5-|-5-5-5-5-5-5-5-5-|-5-0-4-5-5-5-|
|-----------------|-----------------|-------------|
|-----------------|-----------------|-------------|
|-----------------|-----------------|-------------|
|-----------------|-----------------|-------------|


  Eb    E     F#b5  E       Eb    E     F#b5  E
 4/4
                            Gtrs I, II
  E  a  E E E E  a  E E E   E  a  E E E E  a  E E E
|-0-(0)-0-0-0-0-(0)-0-0-0-|-0-(0)-0-0-0-0-(0)-0-0-0-||
|-4-(4)s5-5-5-6-(6)s5-5-5-|-4-(4)s5-5-5-6-(6)s5-5-5-||
|-------------------------|-------------------------||
|-------------------------|-------------------------||
|-------------------------|-------------------------||
|-------------------------|-------------------------||


   "Welcome to the end of.."
    N.C.              Bbb5N.C.        BbN.C.    Bbb5
              PM                    PM  PM----|
    E E  a  E E E E E E   E E  a  E E E S S S S E
||----------------------|-------------------------|
||o---------------------|-------------------------|
||--------------------9-|-------------9---------9-|
||--------------------8-|-------------8---------8-|
||o---2-(2)s8---8-----7-|---2-(2)s8---7---------7-|
||--0---------0---7-6-6-|-0---------0-6-0-0-0-0-6-|


  N.C.              Bbb5         N.C.        Bbb5         N.C.
            PM                   PM--------|
  E E  a  E E E E E E   +E  E Q  S S S S S S E   +E  E Q  E    E E  E
|---------------------|------------------------|----------------------|
|---------------------|------------------------|----------------------|
|-------------------9-|-(9)-9-9--------------9-|-(9)-9-9--------------|
|-------------------8-|-(8)-8-8--------------8-|-(8)-8-8--------------|
|---2-(2)s8---8-----7-|-(7)-7-7--------------7-|-(7)-7-7--------------|
|-0---------0---7-6-6-|-(6)-6-6--0-0-0-0-0-0-6-|-(6)-6-6--1b2==1-1r-1-|


  N.C.              Bbb5N.C.        BbN.C.    Bbb5
            PM                    PM  PM----|
  E E  a  E E E E E E   E E  a  E E E S S S S E
|---------------------|-------------------------|
|---------------------|-------------------------|
|-------------------9-|-------------9---------9-|
|-------------------8-|-------------8---------8-|
|---2-(2)s8---8-----7-|---2-(2)s8---7---------7-|
|-0---------0---7-6-6-|-0---------0-6-0-0-0-0-6-|


  1.
  N.C.
  Gtr I
  PM
  E E    E E E E E E    E  E  E  E E  E  E  E
|--------------------|-------------------------||
|--------------------|------------------------o||
|--------------------|-------------------------||
|--------------------|-------------------------||
|--------------------|------------------------o||
|-0-1b2==1-1-1-1-1-1-|--1--1r=1--1-1--1--1--1--||
|
| Gtr II
| PM
| E E    E E E E E E    E  E  E  Q    E  E  E
|--------------------|-------------------------||
|--------------------|------------------------o||
|---9----9-9-9-9-9-9-|-14-14-14-12---11-11-11--||
|---x----x-x-x-x-x-x-|--x--x--x--x----x--x--x--||
|---7----7-7-7-7-7-7-|-12-12-12-10----9--9--9-o||
|-0------------------|-------------------------||


  2.
  N.C.
  Gtr I
  PM
  E E    E E E E E E    E  E  E  E  E  E  E  E
|--------------------|-------------------------||
|--------------------|-------------------------||
|--------------------|-------------------------||
|--------------------|-------------------------||
|--------------------|-------------------------||
|-0-1b2==1-1-1-1-1-1-|--1--1r=1--1--1--1--1--1-||
|
| Gtr II
| PM
| E E    E E E E E E    E  E  E  E  E  E  E  E
|--------------------|-------------------------||
|--------------------|-------------------------||
|---9----9-9-9-9-9-9-|-14-14-14-12-12-12-11-11-||
|---x----x-x-x-x-x-x-|--x--x--x--x--x--x--x--x-||
|---7----7-7-7-7-7-7-|-12-12-12-10-10-10--9--9-||
|-0------------------|-------------------------||


 "I'm the bastard kid of a.."
  E BsEbE EmE E Em  E   EmE C/E5EsEm4
  E E E E E E E E   E E E E E E E E
|-----------------|-----------------|
|-----------------|-----------------|
|-----------------|-----------------|
|-----------------|-----------------|
|-----------------|-----------------|
|-7-7-7-5-7-7-5-7-|-7-5-7-5-5-7-5-7-|
|
| E E E E E E E E   E E E E E E E E
|-0-0-0-0-3-0-0-3-|-0-0-3-0-8-7-5-3-|
|-5-0-4-5-5-5-5-5-|-5-5-5-5-5-5-5-5-|
|-----------------|-----------------|
|-----------------|-----------------|
|-----------------|-----------------|
|-----------------|-----------------|


  E BsEbE EmE   Em  E   EmE C/E5EsEm4
  E E E E E E E E   E E E E E E E E
|-----------------|-----------------|
|-----------------|-----------------|
|-----------------|-----------------|
|-----------------|-----------------|
|-----------------|-----------------|
|-4-4-4-4-4-4-4-4-|-4-4-4-4-4-4-4-4-|
|
| E E E E E E E E   E E E E E E E E
|-0-0-0-0-3-0-0-3-|-0-0-3-0-8-7-5-3-|
|-5-0-4-5-5-5-5-5-|-5-5-5-5-5-5-5-5-|
|-----------------|-----------------|
|-----------------|-----------------|
|-----------------|-----------------|
|-----------------|-----------------|


  E BsEbE EmE   Em  E   EmE C/E5EsEm4
  E E E E E E E E   E E E E E E E E
|-----------------|-----------------|
|-----------------|-----------------|
|-----------------|-----------------|
|-----------------|-----------------|
|-----------------|-----------------|
|-2-2-2-2-2-2-2-2-|-2-2-2-2-2-2-2-2-|
|
| E E E E E E E E   E E E E E E E E
|-0-0-0-0-3-0-0-3-|-0-0-3-0-8-7-5-3-|
|-5-0-4-5-5-5-5-5-|-5-5-5-5-5-5-5-5-|
|-----------------|-----------------|
|-----------------|-----------------|
|-----------------|-----------------|
|-----------------|-----------------|


  Eb    E     F#b5  E       Eb    E     F#b5  E
  E     E E E E     E E E   E     E E E Q       Q
|-------------------------|-------------------------|
|-------------------------|-------------------------|
|-------------------------|-------------------------|
|-------------------------|-------------3-------3---|
|-------------------------|-------------3-------3---|
|-2-----2-2-2-2-----2-2-2-|-2-----2-2-2-1-------1---|
|
| E  a  E E E E  a  E E E   E  a  E E E E  a  E E E
|-0-(0)-0-0-0-0-(0)-0-0-0-|-0-(0)-0-0-0-0-(0)-0-0-0-|
|-4-(4)s5-5-5-6-(6)s5-5-5-|-4-(4)s5-5-5-6-(6)s5-5-5-|
|-------------------------|-------------------------|
|-------------------------|-------------------------|
|-------------------------|-------------------------|
|-------------------------|-------------------------|


  N.Eb      D#bEb                    N.C.
  E  E  E E  E  E E  E   E  E E  E E  E  E  E
|----------------------|----------------------|
|----------------------|----------------------|
|----------------------|----------------------|
|----------------------|----------------------|
|----------------------|----------------------|
|-7--7--7-5--7--7-5--7-|-7--5-7--5-5--7--5--7-|
|
| E  E  E E  E  E E  E   E  E E  E E  E  E  E
|---12-12---17-12---12-|---12---12------12-17-|
|---16-16---16-16---16-|---16---16---16-------|
|----------------------|----------------------|
|----------------------|----------------------|
|----------------------|----------------------|
|----------------------|----------------------|


  N.Eb      D#bEb                    N.C.
  E  E  E E  E  E E  E   E  E E  E E  E  E  E
|----------------------|----------------------|
|----------------------|----------------------|
|----------------------|----------------------|
|----------------------|----------------------|
|----------------------|----------------------|
|-4--4--4-4--4--4-4--4-|-4--4-4--4-4--4--4--4-|
|
| E  E  E E  E  E E  E   E  E E  E E  E  E  E
|---12-12---17-12---12-|---12---12------12-17-|
|---16-16---16-16---16-|---16---16---16-------|
|----------------------|----------------------|
|----------------------|----------------------|
|----------------------|----------------------|
|----------------------|----------------------|


  N.Eb      D#bEb                    N.C.
  E  E  E E  E  E E  E   E  E E  E E  E  E  E
|----------------------|----------------------|
|----------------------|----------------------|
|----------------------|----------------------|
|----------------------|----------------------|
|----------------------|----------------------|
|-2--2--2-2--2--2-2--2-|-2--2-2--2-2--2--2--2-|
|
| E  E  E E  E  E E  E   E  E E  E E  E  E  E
|---12-12---17-12---12-|---12---12------12-17-|
|---16-16---16-16---16-|---16---16---16-------|
|----------------------|----------------------|
|----------------------|----------------------|
|----------------------|----------------------|
|----------------------|----------------------|


  N.Eb      EbsEb4
  E  E  E E  E  E E  E    E    E   E  E Q  Q
|----------------------|----------------------||
|----------------------|----------------------||
|----------------------|----------------------||
|----------------------|----------------3--3--||
|----------------------|----------------3--3--||
|-2--2--2-2--2--2-2--2-|--2----2---2--2-1--1--||
|
| E  E  E E  E  E E  E    Q       +H.
|---12-12---17-12---12-|-12------(12)---------||
|---16-16---16-16---16-|-16b17---(16)---------||
|----------------------|----------------------||
|----------------------|----------------------||
|----------------------|----------------------||
|----------------------|----------------------||


 "And you can't tear your.."
  E     BsEb4  E EmE   Em  E      EmE C/E5EsEm4
   E    E   E  E E E E E     E  E E E E E E E
|--0----0---0--0-3-0-0-3-|---0--0-3-0-8-7-5-3-|
|--5----0---4--5-5-5-5-5-|---5--5-5-5-5-5-5-5-|
|------------------------|--------------------|
|------------------------|--------------------|
|------------------------|--------------------|
|------------------------|--------------------|
|
|  Q       +H.              +W
|-15------(15)-----------|-(15)---------------|
|-19b20---(19)-----------|-(19)---------------|
|------------------------|--------------------|
|------------------------|--------------------|
|------------------------|--------------------|
|------------------------|--------------------|


  E  BsuEb E  Em E     Em   E     Em E  C/EE5 A5/Em
   E  E  E  E  E  E  E  E    E  E  E  E  E  E  E  E
|--0--0--0--0--3--0--0--3-|--0--0--3--0--8--7--5--3-|
|--5--0--4--5--5--5--5--5-|--5--5--5--5--5--5--5--5-|
|-------------------------|-------------------------|
|-------------------------|-------------------------|
|-------------------------|-------------------------|
|-------------------------|-------------------------|
|
|  E  E  E  E  E  E  E  E    E  E  E  E  E  E  E  E
|--0--0--0--0--0--0--0--0-|--0--0--0--0--0--0--0--0-|
|-17-17-17-17-17-17-17-17-|-17-17-17-17-17-17-17-17-|
|-------------------------|-------------------------|
|-------------------------|-------------------------|
|-------------------------|-------------------------|
|-------------------------|-------------------------|


  E  BsuEb E  Em E     Em   E     Em E  C/EE5 EsuEm
   E  E  E  E  E  E  E  E    E  E  E  E  E  E  E  E
|--0--0--0--0--3--0--0--3-|--0--0--3--0--8--7--5--3-|
|--5--0--4--5--5--5--5--5-|--5--5--5--5--5--5--5--5-|
|-------------------------|-------------------------|
|-------------------------|-------------------------|
|-------------------------|-------------------------|
|-------------------------|-------------------------|
|
|  E  E  E  E  E  E  E  E    E  E  E  E  E  E  E  E
|--0--0--0--0--0--0--0--0-|--0--0--0--0--0--0--0--0-|
|-12-12-12-12-12-12-12-12-|-12-12-12-12-12-12-12-12-|
|-------------------------|-------------------------|
|-------------------------|-------------------------|
|-------------------------|-------------------------|
|-------------------------|-------------------------|


  Eb     E        F#b5     E          Eb
  Gtr I
                                        TP       TP     TP     TP
   E  a   E  E  E   E   a   E  E  E     Q       +Q     +Q     +Q     a
|--0-(0)--0--0--0---0--(0)--0--0--0-|---0-------(0)----(0)----(0)-------||
|--4-(4)s=5--5--5---6--(6)s=5--5--5-|---4b7=====(4)----(4)----(4)----xr-||
|-----------------------------------|-----------------------------------||
|-----------------------------------|-----------------------------------||
|-----------------------------------|-----------------------------------||
|-----------------------------------|-----------------------------------||
|
| Gtr II
|  E      E  E  E   E       E  E  E     E     E  E   E  E   E  E   E
|--0------0--0--0---0-------0--0--0-|---0-----0--0---0--0---0--0---0----||
|-12-----12-12-12--12------12-12-12-|--12----12-12--12-12--12-12--12----||
|-----------------------------------|-----------------------------------||
|-----------------------------------|-----------------------------------||
|-----------------------------------|-----------------------------------||
|-----------------------------------|-----------------------------------||
|
| Gtr III
|                   <
|  H                H                  +W
|-----------------[14]--------------|-(14)------------------------------||
|-----------------------------------|-----------------------------------||
|-----------------------------------|-----------------------------------||
|-----------------------------------|-----------------------------------||
|-----------------------------------|-----------------------------------||
|-----------------------------------|-----------------------------------||


   "..I will wait.."
    Eb5       E5                Eb5   N.Bbb5
    Gtrs I, II
              PM--------------|       PM
    E E E E E S S S S S S   S S E E E E  E  E  E
||------------------------|----------------------|
||o-----------------------|----------------------|
||--9-9-9-9-9-------------|-----9-9-9---15-15-15-|
||--8-8-8-8-8-------------|-----8-8-8---14-14-14-|
||o-7-7-7-7-7-2-2-2-2-2-2-|-2-2-7-7-7---13-13-13-|
||--0-0-0-0-0-0-0-0-0-0-0-|-0-0-0-0-0-0--0--0--0-|


  N.D#b5    E5                D#b5  N.Ab5
  PM        PM--------------|       PM
  E E E E E S S S S S S   S S E E E E  E  E  E
|-----------------------|----------------------|
|-----------------------|----------------------|
|---8-8-8-8-------------|-----8-8-8---14-14-14-|
|---7-7-7-7-------------|-----7-7-7---13-13-13-|
|---6-6-6-6-2-2-2-2-2-2-|-2-2-6-6-6---12-12-12-|
|-0-0-0-0-0-0-0-0-0-0-0-|-0-0-0-0-0-0--0--0--0-|


  Eb5            E5                    Eb5         Bbb5
  Gtr I
                  PM-----------------|           PM
   E  E  E  E  E  S S  S S  S S    S S  E  E  E  E  E  E  E
|-------------------------------|---------------------------|
|-------------------------------|---------------------------|
|--9--9--9--9--9----------------|-------9--9--9----15-15-15-|
|--8--8--8--8--8----------------|-------8--8--8----14-14-14-|
|--7--7--7--7--7--2-2--2-2--2-2-|--2-2--7--7--7----13-13-13-|
|--0--0--0--0--0--0-0--0-0--0-0-|--0-0--0--0--0--0--0--0--0-|
|
| Gtr II
|  E  E  E  E  E  E    E    E      E    E  E  E  E  E  E  E
|-------------------------------|---------------------------|
|-------------------------------|---------------------------|
|-12-12-12-12-12-12---12---12---|-12---11-11-11-11-11-11-11-|
|--x--x--x--x--x--x----x----x---|--x----x--x--x--x--x--x--x-|
|-10-10-10-10-10-10---10---10---|-10----9--9--9--9--9--9--9-|
|-------------------------------|---------------------------|


  1.
  N.C.
  E E E E E E E E    E  E  E  E E  E  E  E
|-----------------|-------------------------||
|-----------------|------------------------o||
|-5-5-5-5-5-5-5-5-|--4--4--4--4-4--8--8--8--||
|-x-x-x-x-x-x-x-x-|--x--x--x--x-x--x--x--x--||
|-3-3-3-3-3-3-3-3-|--2--2--2--2-2--6--6--6-o||
|-----------------|-------------------------||
|
| E E E E E E E E    E  E  E  Q    E  E  E
|-----------------|-------------------------||
|-----------------|------------------------o||
|-9-9-9-9-9-9-9-9-|-14-14-14-12---11-11-11--||
|-x-x-x-x-x-x-x-x-|--x--x--x--x----x--x--x--||
|-7-7-7-7-7-7-7-7-|-12-12-12-10----9--9--9-o||
|-----------------|-------------------------||


  2.
  N.C.                             F5
                                   PM----|
  E    E E E E E E E    E  E  E  E E E E E
|--------------------|---------------------||
|--------------------|---------------------||
|--------------------|---------------------||
|--------------------|---------------------||
|--------------------|-------------3-3-3-3-||
|-1b2==1-1-1-1-1-1-1-|--1--1r=1--1-1-1-1-1-||
|
|                                  PM----|
| E    E E E E E E E    E  E  E  E E E E E
|--------------------|---------------------||
|--------------------|---------------------||
|-9----9-9-9-9-9-9-9-|-14-14-14-12---------||
|-x----x-x-x-x-x-x-x-|--x--x--x--x---------||
|-7----7-7-7-7-7-7-7-|-12-12-12-10-3-3-3-3-||
|--------------------|-------------1-1-1-1-||


 "I'm the bastard kid of a.."
  E BsEbE EmE   Em  E   EmE C/E5EsEm4
  E E E E E E E E   E E E E E E E E
|-----------------|-----------------|
|-----------------|-----------------|
|-----------------|-----------------|
|-----------------|-----------------|
|-----------------|-----------------|
|-7-7-7-5-7-7-5-7-|-7-5-7-5-5-7-5-7-|
|
| E E E E E E E E   E E E E E E E E
|-0-0-0-0-3-0-0-3-|-0-0-3-0-8-7-5-3-|
|-5-0-4-5-5-5-5-5-|-5-5-5-5-5-5-5-5-|
|-----------------|-----------------|
|-----------------|-----------------|
|-----------------|-----------------|
|-----------------|-----------------|


  E BsEbE EmE   Em  E   EmE C/E5EsEm4
  E E E E E E E E   E E E E E E E E
|-----------------|-----------------|
|-----------------|-----------------|
|-----------------|-----------------|
|-----------------|-----------------|
|-----------------|-----------------|
|-4-4-4-4-4-4-4-4-|-4-4-4-4-4-4-4-4-|
|
| E E E E E E E E   E E E E E E E E
|-0-0-0-0-3-0-0-3-|-0-0-3-0-8-7-5-3-|
|-5-0-4-5-5-5-5-5-|-5-5-5-5-5-5-5-5-|
|-----------------|-----------------|
|-----------------|-----------------|
|-----------------|-----------------|
|-----------------|-----------------|


  E BsEbE EmE   Em  E   EmE C/E5EsEm4
  E E E E E E E E   E E E E E E E E
|-----------------|-----------------|
|-----------------|-----------------|
|-----------------|-----------------|
|-----------------|-----------------|
|-----------------|-----------------|
|-2-2-2-2-2-2-2-2-|-2-2-2-2-2-2-2-2-|
|
| E E E E E E E E   E E E E E E E E
|-0-0-0-0-3-0-0-3-|-0-0-3-0-8-7-5-3-|
|-5-0-4-5-5-5-5-5-|-5-5-5-5-5-5-5-5-|
|-----------------|-----------------|
|-----------------|-----------------|
|-----------------|-----------------|
|-----------------|-----------------|


  Eb    E     F#b5  E       Eb    E     F#b5  E
  E     E E E E     E E E   E     E E E Q       Q
|-------------------------|-------------------------|
|-------------------------|-------------------------|
|-------------------------|-------------------------|
|-------------------------|-------------3-------3---|
|-------------------------|-------------3-------3---|
|-2-----2-2-2-2-----2-2-2-|-2-----2-2-2-1-------1---|
|
| E  a  E E E E  a  E E E   E  a  E E E E  a  E E E
|-0-(0)-0-0-0-0-(0)-0-0-0-|-0-(0)-0-0-0-0-(0)-0-0-0-|
|-4-(4)s5-5-5-6-(6)s5-5-5-|-4-(4)s5-5-5-6-(6)s5-5-5-|
|-------------------------|-------------------------|
|-------------------------|-------------------------|
|-------------------------|-------------------------|
|-------------------------|-------------------------|


  N.Eb      EbsEb4                   N.C.
  E  E  E E  E  E E  E   E  E E  E E  E  E  E
|----------------------|----------------------|
|----------------------|----------------------|
|----------------------|----------------------|
|----------------------|----------------------|
|----------------------|----------------------|
|-7--7--7-5--7--7-5--7-|-7--5-7--5-5--7--5--7-|
|
| E  E  E E  E  E E  E   E  E E  E E  E  E  E
|---12-12---17-12---12-|---12---12------12-17-|
|---16-16---16-16---16-|---16---16---16-------|
|----------------------|----------------------|
|----------------------|----------------------|
|----------------------|----------------------|
|----------------------|----------------------|


  N.Eb      EbsEb4                   N.C.
  E  E  E E  E  E E  E   E  E E  E E  E  E  E
|----------------------|----------------------|
|----------------------|----------------------|
|----------------------|----------------------|
|----------------------|----------------------|
|----------------------|----------------------|
|-4--4--4-4--4--4-4--4-|-4--4-4--4-4--4--4--4-|
|
| E  E  E E  E  E E  E   E  E E  E E  E  E  E
|---12-12---17-12---12-|---12---12------12-17-|
|---16-16---16-16---16-|---16---16---16-------|
|----------------------|----------------------|
|----------------------|----------------------|
|----------------------|----------------------|
|----------------------|----------------------|


  N.Eb      EbsEb4                   N.C.
  E  E  E E  E  E E  E   E  E E  E E  E  E  E
|----------------------|----------------------|
|----------------------|----------------------|
|----------------------|----------------------|
|----------------------|----------------------|
|----------------------|----------------------|
|-2--2--2-2--2--2-2--2-|-2--2-2--2-2--2--2--2-|
|
| E  E  E E  E  E E  E   E  E E  E E  E  E  E
|---12-12---17-12---12-|---12---12------12-17-|
|---16-16---16-16---16-|---16---16---16-------|
|----------------------|----------------------|
|----------------------|----------------------|
|----------------------|----------------------|
|----------------------|----------------------|


  N.Eb
                                                 2/4
  E  E  E  E  E  E  E  E    E    E   E  E Q  Q      Q   Q
|------------------------|----------------------|----------||
|------------------------|----------------------|----------||
|------------------------|----------------------|----------||
|------------------------|----------------3--3--|---3---3--||
|------------------------|----------------3--3--|---3---3--||
|-2--2--2--2--2--2--2--2-|--2----2---2--2-1--1--|---1---1--||
|
| E  E  E  E  E  E  E  E    Q       +H.            +H
|---12-12-12-12-12-12-12-|-12------(12)---------|-(12)-----||
|---16-16-16-16-16-16-16-|-16b17---(16)---------|-(16)-----||
|------------------------|----------------------|----------||
|------------------------|----------------------|----------||
|------------------------|----------------------|----------||
|------------------------|----------------------|----------||


 "..you just had yourself a.."
  E     BsEb4  E EmE   Em  E      EmE C/E5EsEm4
 4/4
   E    E   E  E E E E E     E  E E E E E E E
|--0----0---0--0-3-0-0-3-|---0--0-3-0-8-7-5-3-|
|--5----0---4--5-5-5-5-5-|---5--5-5-5-5-5-5-5-|
|------------------------|--------------------|
|------------------------|--------------------|
|------------------------|--------------------|
|------------------------|--------------------|
|
|  Q       +H.              +W
|-15------(15)-----------|-(15)---------------|
|-19b20---(19)-----------|-(19)---------------|
|------------------------|--------------------|
|------------------------|--------------------|
|------------------------|--------------------|
|------------------------|--------------------|


  E  BsuEb E  Em E     Em   E     Em E  C/EE5 A5/Em
   E  E  E  E  E  E  E  E    E  E  E  E  E  E  E  E
|--0--0--0--0--3--0--0--3-|--0--0--3--0--8--7--5--3-|
|--5--0--4--5--5--5--5--5-|--5--5--5--5--5--5--5--5-|
|-------------------------|-------------------------|
|-------------------------|-------------------------|
|-------------------------|-------------------------|
|-------------------------|-------------------------|
|
|  E  E  E  E  E  E  E  E    E  E  E  E  E  E  E  E
|--0--0--0--0--0--0--0--0-|--0--0--0--0--0--0--0--0-|
|-17-17-17-17-17-17-17-17-|-17-17-17-17-17-17-17-17-|
|-------------------------|-------------------------|
|-------------------------|-------------------------|
|-------------------------|-------------------------|
|-------------------------|-------------------------|


  E  BsuEb E  Em E     Em   E     Em E  C/EE5 EsuEm
   E  E  E  E  E  E  E  E    E  E  E  E  E  E  E  E
|--0--0--0--0--3--0--0--3-|--0--0--3--0--8--7--5--3-|
|--5--0--4--5--5--5--5--5-|--5--5--5--5--5--5--5--5-|
|-------------------------|-------------------------|
|-------------------------|-------------------------|
|-------------------------|-------------------------|
|-------------------------|-------------------------|
|
|  E  E  E  E  E  E  E  E    E  E  E  E  E  E  E  E
|--0--0--0--0--0--0--0--0-|--0--0--0--0--0--0--0--0-|
|-12-12-12-12-12-12-12-12-|-12-12-12-12-12-12-12-12-|
|-------------------------|-------------------------|
|-------------------------|-------------------------|
|-------------------------|-------------------------|
|-------------------------|-------------------------|


  Eb     E        F#b5     E          Eb
  Gtr I
                                        TP       TP     TP     TP
   E  a   E  E  E   E   a   E  E  E     Q       +Q     +Q     +Q     a
|--0-(0)--0--0--0---0--(0)--0--0--0-|---0-------(0)----(0)----(0)-------||
|--4-(4)s=5--5--5---6--(6)s=5--5--5-|---4b7=====(4)----(4)----(4)----xr-||
|-----------------------------------|-----------------------------------||
|-----------------------------------|-----------------------------------||
|-----------------------------------|-----------------------------------||
|-----------------------------------|-----------------------------------||
|
| Gtr II
|  E      E  E  E   E       E  E  E     E     E  E   E  E   E  E   E
|--0------0--0--0---0-------0--0--0-|---0-----0--0---0--0---0--0---0----||
|-12-----12-12-12--12------12-12-12-|--12----12-12--12-12--12-12--12----||
|-----------------------------------|-----------------------------------||
|-----------------------------------|-----------------------------------||
|-----------------------------------|-----------------------------------||
|-----------------------------------|-----------------------------------||
|
| Gtr III
|                   <
|  H                H                  +W
|-----------------[14]--------------|-(14)------------------------------||
|-----------------------------------|-----------------------------------||
|-----------------------------------|-----------------------------------||
|-----------------------------------|-----------------------------------||
|-----------------------------------|-----------------------------------||
|-----------------------------------|-----------------------------------||


  E    BsEbE EmE   Em  E      EmE C/E5EsEm4
 4/4
  Gtr II
    E  E E E E E E E     E  E E E E E E E
|---0--0-0-0-3-0-0-3-|---0--0-3-0-8-7-5-3-|
|---5--0-4-5-5-5-5-5-|---5--5-5-5-5-5-5-5-|
|--------------------|--------------------|
|--------------------|--------------------|
|--------------------|--------------------|
|--------------------|--------------------|
|
| Gtr III
|   >
|  +W                   +W
|-(14)---------------|-(14)---------------|
|--------------------|--------------------|
|--------------------|--------------------|
|--------------------|--------------------|
|--------------------|--------------------|
|--------------------|--------------------|


  E BsEbE EmE   Em  E   EmE Bb
  Gtr II
  E E E E E E E E   E E E E E    E E E a
|-0-0-0-0-3-0-0-3-|-0-0-3-0---------------|
|-5-0-4-5-5-5-5-5-|-5-5-5-5-0----0-0-0----|
|-----------------|---------3b4==3-3-3-xr-|
|-----------------|-----------------------|
|-----------------|-----------------------|
|-----------------|-----------------------|


  E BsEbE EmE   Em  E   EmE C/E5EsEm4 E BsEbE EmE
                                     3/4
  E E E E E E E E   E E E E E E E E   E E E E E E
|-0-0-0-0-3-0-0-3-|-0-0-3-0-8-7-5-3-|-0-0-0-0-3-0-|
|-5-0-4-5-5-5-5-5-|-5-5-5-5-5-5-5-5-|-5-0-4-5-5-5-|
|-----------------|-----------------|-------------|
|-----------------|-----------------|-------------|
|-----------------|-----------------|-------------|
|-----------------|-----------------|-------------|


  Eb    E     F#b5  E       Eb    E     F#b5  E       N.C.
 4/4                                                 2/4
  E  a  E E E E  a  E E E   E  a  E E E E  a  E E E   H
|-0-(0)-0-0-0-0-(0)-0-0-0-|-0-(0)-0-0-0-0-(0)-0-0-0-|------*|
|-4-(4)s5-5-5-6-(6)s5-5-5-|-4-(4)s5-5-5-6-(6)s5-5-5-|------*|
|-------------------------|-------------------------|------*|
|-------------------------|-------------------------|------*|
|-------------------------|-------------------------|------*|
|-------------------------|-------------------------|------*|



Duration Legend
---------------
W - whole; H - half; Q - quarter; E - 8th; S - 16th; T - 32nd; X - 64th; a - acciaccatura
+ - note tied to previous; . - note dotted; .. - note double dotted
Uncapitalized letters represent notes that are staccato (1/2 duration)
Irregular groupings are notated above the duration line
Duration letters will always appear directly above the note/fret number it represents the
duration for.  Duration letters with no fret number below them represent rests.  Multi-
bar rests are notated in the form Wxn, where n is the number of bars to rest for.  Low
melody durations appear below the staff

Tablature Legend
----------------
 h   - hammer-on
 p   - pull-off
 b   - bend
 pb  - pre-bend
 r   - bend release (if no number after the r, then release immediately)
 /\  - slide into or out of (from/to "nowhere")
 s   - legato slide
 S   - shift slide
 - natural harmonic
[n]  - artificial harmonic
n(n) - tapped harmonic
 ~   - vibrato
 tr  - trill
 T   - tap
 TP  - trem. picking
 PM  - palm muting
\n/  - tremolo bar dip; n = amount to dip
 \n  - tremolo bar down
 n/  - tremolo bar up
/n\  - tremolo bar inverted dip
 =   - hold bend; also acts as connecting device for hammers/pulls
 <> - volume swell (louder/softer)
 x   - on rhythm slash represents muted slash
 o   - on rhythm slash represents single note slash

Misc Legend
-----------
 |  - bar
||  - double bar
||o - repeat start
o|| - repeat end
*|  - double bar (ending)
 :  - bar (freetime)
 $  - Segno
 &  - Coda
Tempo markers -  = BPM(8/16=s8/s16), where s8 = swing 8ths, s16 = swing 16ths





Comments


Popular Bled tabs & chords
Ruth Buzzi Better Watch Her Back 1 Bass Tabs
Sound Of Sulfur 1 Bass Tabs
We Are The Industry Bass Tabs
You Know Whos Seatbelt Bass Tabs
Antarctica Tabs
Daylight Bombings Tabs
I Never Met Another Gemini Tabs
Nothing We Say Leaves This Room Tune From The Site Tabs
Red Wedding Tabs
You Know Who's Seatbelt Tabs


Song lyrics



↑ Back to top | Tablatures and chords are parodies/interpretations of the original songs. You may use it for private study, scholarship, research or language learning purposes only
© 2014 AZChords.com Contact us | Privacy policy | DMCA | Add/correct tabs | Request tabs | Top 50 tabs