>
 >
Red Wedding

Red Wedding Guitar Tabs

Bled - Red Wedding chords, tabs, tablatures, lyrics

Guitar lessons | Add/correct | Request | Top 50 tabs Artists:  A B C D E F G H I J K L M N O P Q R S T U V W X Y Z 0-9

Red Wedding Guitar Tabs – Bled

CD, Sheet music, Poster

Do you like Red Wedding? Share with your friends now
Bass TabsTabs
The Bled | Red Wedding
Pass The Flask
x |palm mute
~ |bend
()|harmonic

Dropped 2 steps

e|--------------------------|
b|--------------------------|
g|-----2--------2-----------|
d|-0-1---3--0-1---3----(5)--|
a|--------------------------|
E|--------------------------|
       x6        after last l


e|-----------------------------------|
b|-----------------------------------|
g|-----------------------------------|
d|-----------------------------------|
a|-----2---------2-------------------|
E|-0-1---3---0-1---3-----------------|

e|---------------------------|
b|---------------------------|
g|---------------------------|
d|----77-7-77-7-77-7-77-7/6--|
a|----77-7-77-7-77-7-77-7/6--|
E|-1/-55-5-55-5-55-5-55-5/4--|
      xx   xx   xx   xx

e|---------------------------|
b|---------------------------|
g|---------------------------|
d|--66-6-66-6-66-6-66-6/5----|
a|--66-6-66-6-66-6-66-6/5----|
E|--44-4-44-4-44-4-44-4/3----|
    xx   xx   xx   xx

e|---------------------------|
b|---------------------------|
g|---------------------------|
d|--55-5-55-5-55-5-55-5/4----|
a|--55-5-55-5-55-5-55-5/4----|
E|--33-3-33-3-33-3-33-3/2----|
    xx   xx   xx   xx

1st time                               2nd time (Let Ring)
e|----------------------------------|-----------|
b|----------------------------------|-----------|
g|----------------------------------|-----------|
d|-44-4-4-44-4-4-44-4-4--5----------|---3-------|
a|-44-4-4-44-4-4-44-4-4-----5-5/7~--|---3-------|
E|-22-2-2-22-2-2-22-2-2-------------|---1-------|
   xx   x    x   xx   x


e|--8-7-------8-7-----8-7------8-7---------------------|
b|-------8-7------8-7------8-7-------8-7---------------|

e|--10-8-7----10-8-7-----10-8-7----10-8-7----10-8-7-----|
b|----------8---------8----------8---------8--------8---|

e|--8-7-------8-7-----8-7------8-7-------------------------|
b|-------8-7------8-7------8-7-------8-7---8-7-8-10-8-7----|

e|--8-7-------8-7-----8-7------8-7----------------------|
b|-------8-7------8-7------8-7-------8-7----------------|

e|--10-8-7----10-8-7-----10-8-7----10-8-7----10-8-7-----|
b|----------8---------8----------8---------8--------8---|

e|--8-7-------8-7-----8-7------8-7---------------------------------------|
b|-------8-7------8-7------8-7-------8-7---8-7-8-10-8-7-8-7-8-10-8-7-8---|


e|----------------(5)-------------------------------------|
b|-------------(5)----------------------------------------|
g|--------------------------------------------------------|
d|-2-3-2-3-2-3--------2----4---4---4---4----444444444-----|
a|-2-2-2-2-2-2--------2--3---3---3---3------333333333-----|
E|-0-0-0-0-0-0--------0-----------------------------------|

e|---------------------------------------------------------|
b|---------------------------------------------------------|
g|---------------------------------------------------------|
d|-2-2-2-222-2-2-2--2-2---2-2-2-222-2-2-2------------------|
a|-2-2-2-222-2-2-2--2-2---2-2-2-222-2-2-2------2-----------|
E|-0-0-0-000-0-0-0--0-0---0-0-0-000-0-0-0--0-1---3---------|

e|---------------------------------------------------------|
b|---------------------------------------------------------|
g|---------------------------------------------------------|
d|-2-2-2-222-2-2-2--2-2---2-2-2-222-2-2-2------------------|
a|-2-2-2-222-2-2-2--2-2---2-2-2-222-2-2-2------2-----------|
E|-0-0-0-000-0-0-0--0-0---0-0-0-000-0-0-0--0-1---3---------|

e|--------------------------------------------------------|
b|--------------------------------------------------------|
g|------------3-------------------------------------------|
d|-2-2-2-222--0--2-2-2--2-2---2-2-2-222-2-2-2-------------|
a|-2-2-2-222-----2-2-2--2-2---2-2-2-222-2-2-2-----2-------|
E|-0-0-0-000-----0-0-0--0-0---0-0-0-000-0-0-0-0-1---3-----|

e|------------------------------------------------------------|
b|------------------------------------------------------------|
g|------------3-----------------------------------------------|
d|-2-2-2-222--0--2-2-2--2-2---2-2-2-222-2-2-2-----------------|
a|-2-2-2-222-----2-2-2--2-2---2-2-2-222-2-2-2-----2-----------|
E|-0-0-0-000-----0-0-0--0-0---0-0-0-000-0-0-0-0-1---3---------|

e|----------------------------|
b|----------------------------|
g|----------------------------|
d|-77-7-77-7-77-7-77-7/6------|
a|-77-7-77-7-77-7-77-7/6------|
E|-55-5-55-5-55-5-55-5/4------|
      xx   xx   xx   xx

e|---------------------------|
b|---------------------------|
g|---------------------------|
d|--66-6-66-6-66-6-66-6/5----|
a|--66-6-66-6-66-6-66-6/5----|
E|--44-4-44-4-44-4-44-4/3----|
    xx   xx   xx   xx

e|---------------------------|
b|---------------------------|
g|---------------------------|
d|--55-5-55-5-55-5-55-5/4----|
a|--55-5-55-5-55-5-55-5/4----|
E|--33-3-33-3-33-3-33-3/2----|
    xx   xx   xx   xx

1st time                               2nd time (Let Ring)
e|----------------------------------|-----------|
b|----------------------------------|-----------|
g|----------------------------------|-----------|
d|-44-4-4-44-4-4-44-4-4--5----------|---3-------|
a|-44-4-4-44-4-4-44-4-4-----5-5/7~--|---3-------|
E|-22-2-2-22-2-2-22-2-2-------------|---1-------|
   xx   x    x   xx   x

e|------|
b|------|
g|------|
d|--2---|
a|--2---|
E|--0---|

e|-----------9-9-9-9/15151515---------------------------|
b|----------13131313/18181818---------------------------|
g|------------------------------------------------------|
d|-2-2-2-2-2--------------------2-2-2-2-2---2222--------|
a|-2-2-2-2-2--------------------2-2-2-2-2---2222--------|
E|-0-0-0-0-0--------------------0-0-0-0-0---0000--------|
   x x x x x                    x x x x x   xxxx

e|-----------9-9-9-9/15151515------------------------------|
b|----------13131313/18181818------------------------------|
g|---------------------------------------------------------|
d|-2-2-2-2-2--------------------2-2-2-2-2--3-3-3-3-2-9~----|
a|-2-2-2-2-2--------------------2-2-2-2-2------------------|
E|-0-0-0-0-0--------------------0-0-0-0-0------------------|
   x x x x x                    x x x x x

e|---------------------------------------------|
b|---------------------------------------------|
g|---------------------------------------------|
d|-2-2-2-2-2-----------2-2-2-2-2---2222--------|
a|-2-2-2-2-2-----------2-2-2-2-2---2222--------|
E|-0-0-0-0-0-----------0-0-0-0-0---0000--------|
   x x x x x           x x x x x   xxxx

e|-----------9-9-9-9/15151515---------------------------|
b|----------13131313/18181818---------------------------|
g|------------------------------------------------------|
d|-2-2-2-2-2--------------------2-2-2-2-2---2222--------|
a|-2-2-2-2-2--------------------2-2-2-2-2---2222--------|
E|-0-0-0-0-0--------------------0-0-0-0-0---0000--------|
   x x x x x                    x x x x x   xxxx





Comments


Popular Bled tabs & chords
I Never Met Another Gemini Bass Tabs
Red Wedding Bass Tabs
Smoke Breaks Bass Tabs
Sound Of Sulfur Bass Tabs
Antarctica Tabs
House Of Suffering Tabs
I Never Met Another Gemini (Intro) Tabs
I Never Met Another Gemini 1 Tabs
Porcelain Hearts And Hammers For Teeth Tabs
Sound Of Sulfur 1 Tabs


Song lyrics



↑ Back to top | Tablatures and chords are parodies/interpretations of the original songs. You may use it for private study, scholarship, research or language learning purposes only
© 2014 AZChords.com Contact us | Privacy policy | DMCA | Add/correct tabs | Request tabs | Top 50 tabs