>
 >
Porcelain Hearts And Hammers For Teeth 1

Porcelain Hearts And Hammers For Teeth 1 Guitar Tabs

Bled - Porcelain Hearts And Hammers For Teeth 1 chords, tabs, tablatures, lyrics

Guitar lessons | Add/correct | Request | Top 50 tabs Artists:  A B C D E F G H I J K L M N O P Q R S T U V W X Y Z 0-9

Porcelain Hearts And Hammers For Teeth 1 Guitar Tabs – Bled

CD, Sheet music, Poster

Do you like Porcelain Hearts And Hammers For Teeth 1? Share with your friends now
Bass TabsTabsTabs v2
#------------------------------------------------------------------------------##

                     PORCELAIN HEARTS AND HAMMERS FOR TEETH
                             As recorded by The Bled
                      (From the 2003 Album PASS THE FLASK)

Words and Music by The Bled
Arranged by The Bled

Gtr I (D G C F A D) - 'Untitled'
Gtr II (D G C F A D) - 'Untitled'
Gtr III (D G C F A D) - 'Untitled'
Gtr IV (D G C F A D) - 'Untitled'

 Intro
  Q=124
  N.C.     (Em)
 2/4      4/4
  Gtr IV
   H         E    E  E  E  E  E  E  E     E    E  E  E  E  E  E  E
|--------|----------15-------15-------|----------15-------15-------|
|--------|-------17-------17-------17-|-------17-------17-------17-|
|--------|----------------------------|----------------------------|
|--------|--14---------14-------14----|--16---------16-------16----|
|--------|----------------------------|----------------------------|
|--------|----------------------------|----------------------------|
|
| Gtr I
|  <                                      >
|  H        +W                           +W
|-<7>----|-(<7>)----------------------|-(<7>)----------------------|
|--------|----------------------------|----------------------------|
|--------|----------------------------|----------------------------|
|--------|----------------------------|----------------------------|
|--------|----------------------------|----------------------------|
|--------|----------------------------|----------------------------|


    E    E  E   E  E  E  E  E    E  E  E  E  E  E  E  E
|----------15--------15-------|-------15-------15---------|
|-------17--------17-------17-|----17-------17-------17---|
|-----------------------------|---------------------------|
|--17----------17-------17----|-17-------17-------17------|
|-----------------------------|---------------------------|
|-----------------------------|---------------------------|
|
|  +Q       H.                   W
|-(<7>)-----------------------|---------------------------|
|-----------------------------|---------------------------|
|-----------------------------|---------------------------|
|-----------------------------|---------------------------|
|-----------------------------|---------------------------|
|-----------------------------|---------------------------|


  (Em)
   E   E  E  E  E  E  E  E     E    E  E  E  E  E  E  E
|--------15-------15-------|----------15-------15-------|
|-----17-------17-------17-|-------17-------17-------17-|
|--------------------------|----------------------------|
|-14--------14-------14----|--16---------16-------16----|
|--------------------------|----------------------------|
|--------------------------|----------------------------|
|
|  <                           >
|  W                          +W
|-<7>----------------------|-(<7>)----------------------|
|--------------------------|----------------------------|
|--------------------------|----------------------------|
|--------------------------|----------------------------|
|--------------------------|----------------------------|
|--------------------------|----------------------------|


   E  E  E  E  E  E  E  E    E  E  E  E  E  E  E  E
|-------15-------15-------|-------15-------15-------|
|----17-------17-------17-|----17-------17-------17-|
|-------------------------|-------------------------|
|-------------------------|-------------------------|
|-14-------14-------14----|-14-------14-------14----|
|-------------------------|-------------------------|
|
|  W                         W
|-------------------------|-------------------------|
|-------------------------|-------------------------|
|-------------------------|-------------------------|
|-------------------------|-------------------------|
|-------------------------|-------------------------|
|-------------------------|-------------------------|


  (Em)
   E   E  E  E  E  E  E  E     E    E  E  E  E  E  E  E
|--------15-------15-------|----------15-------15-------|
|-----17-------17-------17-|-------17-------17-------17-|
|--------------------------|----------------------------|
|-14--------14-------14----|--16---------16-------16----|
|--------------------------|----------------------------|
|--------------------------|----------------------------|
|
|  <                           >
|  W                          +W
|-<7>----------------------|-(<7>)----------------------|
|--------------------------|----------------------------|
|--------------------------|----------------------------|
|--------------------------|----------------------------|
|--------------------------|----------------------------|
|--------------------------|----------------------------|


                                 <
    E    E  E   E  E  E  E  E    E  E  E  E  E  E  E  E
|----------15--------15-------|-------15-------15-------|
|-------17--------17-------17-|----17-------17-------17-|
|-----------------------------|-------------------------|
|--17----------17-------17----|-17-------17-------17----|
|-----------------------------|-------------------------|
|-----------------------------|-------------------------|
|
|  +Q       H.                   W
|-(<7>)-----------------------|-------------------------|
|-----------------------------|-------------------------|
|-----------------------------|-------------------------|
|-----------------------------|-------------------------|
|-----------------------------|-------------------------|
|-----------------------------|-------------------------|


  (Em)
   E   E  E  E  E  E  E  E     E    E  E  E  E  E  E  E
|--------15-------15-------|----------15-------15-------|
|-----17-------17-------17-|-------17-------17-------17-|
|--------------------------|----------------------------|
|-14--------14-------14----|--16---------16-------16----|
|--------------------------|----------------------------|
|--------------------------|----------------------------|
|
|  <                           >
|  W                          +W
|-<7>----------------------|-(<7>)----------------------|
|--------------------------|----------------------------|
|--------------------------|----------------------------|
|--------------------------|----------------------------|
|--------------------------|----------------------------|
|--------------------------|----------------------------|


   E  E  E  E  E  E  E  E    E  E  E  E  E  E  E  E
|-------15-------15-------|-------15-------15-------|
|----17-------17-------17-|----17-------17-------17-|
|-------------------------|-------------------------|
|-------------------------|-------------------------|
|-14-------14-------14----|-14-------14-------14----|
|-------------------------|-------------------------|
|
|  W                         W
|-------------------------|-------------------------|
|-------------------------|-------------------------|
|-------------------------|-------------------------|
|-------------------------|-------------------------|
|-------------------------|-------------------------|
|-------------------------|-------------------------|


  (Em)
   E   E  Q   E  Q   E    E   E  Q   E  Q   E
|--------15-----15-----|--------15-----15-----|
|-----17-----17-----17-|-----17-----17-----17-|
|----------------------|----------------------|
|-14-------------------|-16-------------------|
|----------------------|----------------------|
|----------------------|----------------------|
|
|  <                      <
|  W                      W
|-<7>------------------|----------------------|
|----------------------|-<7>------------------|
|----------------------|----------------------|
|----------------------|----------------------|
|----------------------|----------------------|
|----------------------|----------------------|


   +E   E  Q   E  Q   E    +E    E  Q   E  Q   E
|---------15-----15-----|----------15-----15-----|
|-(17)-17-----17-----17-|-(17)--17-----17-----17-|
|-----------------------|------------------------|
|-----------------------|------------------------|
|-----------------------|------------------------|
|-----------------------|------------------------|
|
|   <                       >
|   W                      +W
|-----------------------|------------------------|
|-----------------------|------------------------|
|-----------------------|------------------------|
|--<5>------------------|-(<5>)------------------|
|-----------------------|------------------------|
|-----------------------|------------------------|


  (Em)
   E   E  Q   E  Q   E    E   E  Q   E  Q   E
|--------15-----15-----|--------15-----15-----|
|-----17-----17-----17-|-----17-----17-----17-|
|----------------------|----------------------|
|-14-------------------|-16-------------------|
|----------------------|----------------------|
|----------------------|----------------------|
|
|  <                      <
|  W                      W
|-<7>------------------|----------------------|
|----------------------|-<7>------------------|
|----------------------|----------------------|
|----------------------|----------------------|
|----------------------|----------------------|
|----------------------|----------------------|


   +E   E  Q   E  Q   E    +E    E  Q   E  Q   E
|---------15-----15-----|----------15-----15-----|
|-(17)-17-----17-----17-|-(17)--17-----17-----17-|
|-----------------------|------------------------|
|-----------------------|------------------------|
|-----------------------|------------------------|
|-----------------------|------------------------|
|
|   <                       >
|   W                      +W
|-----------------------|------------------------|
|-----------------------|------------------------|
|--<5>------------------|-(<5>)------------------|
|-----------------------|------------------------|
|-----------------------|------------------------|
|-----------------------|------------------------|


   Verse
    (Em)
     E   E  E  E  E  E  E  E    E   E  E  E  E  E  E  E
||---------15-------15-------|--------15-------15-------|
||o-----17-------17-------17-|-----17-------17-------17-|
||---------------------------|--------------------------|
||--14--------14-------14----|-16--------16-------16----|
||o--------------------------|--------------------------|
||---------------------------|--------------------------|
|
|    <                          <
|    W                          W
||--<7>----------------------|--------------------------|
||o--------------------------|-<7>----------------------|
||---------------------------|--------------------------|
||---------------------------|--------------------------|
||o--------------------------|--------------------------|
||---------------------------|--------------------------|


   E   E  E  E  E  E  E  E     E    E  E  E  E  E  E  E
|--------15-------15-------|----------15-------15--------|
|-----17-------17-------17-|-------17-------17-------17--|
|--------------------------|-----------------------------|
|-17--------17-------17----|--17---------17-------17-----|
|--------------------------|-----------------------------|
|--------------------------|-----------------------------|
|
|  <                           >
|  W                          +W
|--------------------------|-----------------------------|
|--------------------------|-----------------------------|
|--------------------------|-----------------------------|
|-<5>----------------------|-(<5>)-----------------------|
|--------------------------|-----------------------------|
|--------------------------|-----------------------------|


  1.
  (Em)
   E   E  E  E  E  E  E  E    E   E  E  E  E  E  E  E
|--------15-------15-------|--------15-------15-------|
|-----17-------17-------17-|-----17-------17-------17-|
|--------------------------|--------------------------|
|-14--------14-------14----|-16--------16-------16----|
|--------------------------|--------------------------|
|--------------------------|--------------------------|
|
|  <                          <
|  W                          W
|-<7>----------------------|--------------------------|
|--------------------------|-<7>----------------------|
|--------------------------|--------------------------|
|--------------------------|--------------------------|
|--------------------------|--------------------------|
|--------------------------|--------------------------|


   E   E  E  E  E  E  E  E     E    E  E  E  E  E  E  E
|--------15-------15-------|----------15-------15--------||
|-----17-------17-------17-|-------17-------17-------17-o||
|--------------------------|-----------------------------||
|--------------------------|-----------------------------||
|-14--------14-------14----|--14---------14-------14----o||
|--------------------------|-----------------------------||
|
|  <                           >
|  W                          +W
|--------------------------|-----------------------------||
|--------------------------|----------------------------o||
|-<5>----------------------|-(<5>)-----------------------||
|--------------------------|-----------------------------||
|--------------------------|----------------------------o||
|--------------------------|-----------------------------||


  2.
  (Em)                                                  Em/B
   E   E  E  E  E  E  E  E    E   E  E  E  E  E  E  E    W            +W
|--------15-------15-------|--------15-------15-------|-15---------|-(15)-----|
|-----17-------17-------17-|-----17-------17-------17-|-17---------|-(17)-----|
|--------------------------|--------------------------|------------|----------|
|-14--------14-------14----|-16--------16-------16----|------------|----------|
|--------------------------|--------------------------|-14---------|-(14)-----|
|--------------------------|--------------------------|------------|----------|
|
|  <                          <                          <             >
|  W                          W                          W            +W
|-<7>----------------------|--------------------------|------------|----------|
|--------------------------|-<7>----------------------|------------|----------|
|--------------------------|--------------------------|-<5>--------|-(<5>)----|
|--------------------------|--------------------------|------------|----------|
|--------------------------|--------------------------|------------|----------|
|--------------------------|--------------------------|------------|----------|


  (Em)
  Gtr IV
   E  E  E  E  E  E  E  E    E  E  E  E  E  E  E  E
|-------15----19-15-------|-------15----19-15-------|
|----17----------------17-|----17----------------17-|
|-------------------------|-------------------------|
|-14-------14-------14----|-14-------14-------14----|
|-------------------------|-------------------------|
|-------------------------|-------------------------|


                                        E5
   E  E  E  E  E  E  E  E    E  E  E  E   H
|-------15----19-15-------|-------15----^19----|
|----17----------------17-|----17-------^17----|
|-------------------------|--------------------|
|-14-------14-------14----|-14-------14--------|
|-------------------------|--------------------|
|-------------------------|--------------------|


 "Are you grieving for.."
  N.C.
  Gtr IV
    E   E   E    E   E   E    E   E     E   E   E    E   E   E    E   E
|-(20)-----19--(19)-----19--(19)-20-|-(20)-----19--(19)-----19--(19)-20-|
|------17-(17)------17-(17)---------|------17-(17)------17-(17)---------|
|-----------------------------------|-----------------------------------|
|-----------------------------------|-----------------------------------|
|-----------------------------------|-----------------------------------|
|-----------------------------------|-----------------------------------|
|
| Gtr I
|   Q       E    Q       E    E   E     Q       E    Q       E    E   E
|-----------------------------------|-----------------------------------|
|-----------------------------------|-----------------------------------|
|---9-------9----9-------9----9---9-|--11------11---11------11---11--11-|
|---x-------x----x-------x----x---x-|---x-------x----x-------x----x---x-|
|---7-------7----7-------7----7---7-|---9-------9----9-------9----9---9-|
|-----------------------------------|-----------------------------------|


    E   E   E    E   E   E    E   E     E   E   E    E   E   E    E   E
|-(20)-----19--(19)-----19--(19)-20-|-(20)-----19--(19)-----19--(19)-20-|
|------17-(17)------17-(17)---------|------17-(17)------17-(17)---------|
|-----------------------------------|-----------------------------------|
|-----------------------------------|-----------------------------------|
|-----------------------------------|-----------------------------------|
|-----------------------------------|-----------------------------------|
|
|   Q       E    Q       E    E   E     Q       E    Q       E    E   E
|-----------------------------------|-----------------------------------|
|-----------------------------------|-----------------------------------|
|--12------12---12------12---12--12-|---9-------9----9-------9----9---9-|
|---x-------x----x-------x----x---x-|---x-------x----x-------x----x---x-|
|--10------10---10------10---10--10-|--10------10---10------10---10--10-|
|-----------------------------------|-----------------------------------|


  N.C.
    E   E   E    E   E   E    E   E     E   E   E    E   E   E    E   E
|-(20)-----19--(19)-----19--(19)-20-|-(20)-----19--(19)-----19--(19)-20-|
|------17-(17)------17-(17)---------|------17-(17)------17-(17)---------|
|-----------------------------------|-----------------------------------|
|-----------------------------------|-----------------------------------|
|-----------------------------------|-----------------------------------|
|-----------------------------------|-----------------------------------|
|
|   Q       E    Q       E    E   E     Q       E    Q       E    E   E
|-----------------------------------|-----------------------------------|
|-----------------------------------|-----------------------------------|
|---9-------9----9-------9----9---9-|--11------11---11------11---11--11-|
|---x-------x----x-------x----x---x-|---x-------x----x-------x----x---x-|
|---7-------7----7-------7----7---7-|---9-------9----9-------9----9---9-|
|-----------------------------------|-----------------------------------|


    E   E   E    E   E   E    E   E     E   E   E    E   E   E    E   E
|-(20)-----19--(19)-----19--(19)-20-|-(20)-----19--(19)-----19--(19)-20-|
|------17-(17)------17-(17)---------|------17-(17)------17-(17)---------|
|-----------------------------------|-----------------------------------|
|-----------------------------------|-----------------------------------|
|-----------------------------------|-----------------------------------|
|-----------------------------------|-----------------------------------|
|
|   Q       E    Q       E    E   E     Q       E    Q       E    E   E
|-----------------------------------|-----------------------------------|
|-----------------------------------|-----------7------------7----------|
|---8-------8----8-------8----8---8-|---8------(8)---8------(8)---8---8-|
|---x-------x----x-------x----x---x-|---x------(x)---x------(x)---x---x-|
|---6-------6----6-------6----6---6-|---6------(6)---6------(6)---6---6-|
|-----------------------------------|-----------------------------------|


  N.C.
    E   E   E    E   E   E    E   E     E   E   E    E   E   E    E   E
|-(20)-----19--(19)-----19--(19)-20-|-(20)-----19--(19)-----19--(19)-20-|
|------17-(17)------17-(17)---------|------17-(17)------17-(17)---------|
|-----------------------------------|-----------------------------------|
|-----------------------------------|-----------------------------------|
|-----------------------------------|-----------------------------------|
|-----------------------------------|-----------------------------------|
|
|   Q       E    Q       E    E   E     Q       E    Q       E    E   E
|-----------------------------------|-----------------------------------|
|-----------------------------------|-----------------------------------|
|---9-------9----9-------9----9---9-|--11------11---11------11---11--11-|
|---x-------x----x-------x----x---x-|---x-------x----x-------x----x---x-|
|---7-------7----7-------7----7---7-|---9-------9----9-------9----9---9-|
|-----------------------------------|-----------------------------------|


    E   E   E    E   E   E    E   E     E   E   E    E   E   E    E   E
|-(20)-----19--(19)-----19--(19)-20-|-(20)-----19--(19)-----19--(19)-20-|
|------17-(17)------17-(17)---------|------17-(17)------17-(17)---------|
|-----------------------------------|-----------------------------------|
|-----------------------------------|-----------------------------------|
|-----------------------------------|-----------------------------------|
|-----------------------------------|-----------------------------------|
|
|   Q       E    Q       E    E   E     Q       E    Q       E    E   E
|-----------------------------------|-----------------------------------|
|-----------------------------------|-----------------------------------|
|--12------12---12------12---12--12-|---9-------9----9-------9----9---9-|
|---x-------x----x-------x----x---x-|---x-------x----x-------x----x---x-|
|--10------10---10------10---10--10-|--10------10---10------10---10--10-|
|-----------------------------------|-----------------------------------|


  N.C.
    E   E   E    E   E   E    E   E     E   E   E    E   E   E    E   E
|-(20)-----19--(19)-----19--(19)-20-|-(20)-----19--(19)-----19--(19)-20-|
|------17-(17)------17-(17)---------|------17-(17)------17-(17)---------|
|-----------------------------------|-----------------------------------|
|-----------------------------------|-----------------------------------|
|-----------------------------------|-----------------------------------|
|-----------------------------------|-----------------------------------|
|
|   Q       E    Q       E    E   E     Q       E    Q       E    E   E
|-----------------------------------|-----------------------------------|
|-----------------------------------|-----------------------------------|
|---9-------9----9-------9----9---9-|---7-------7----7-------7----7---7-|
|---x-------x----x-------x----x---x-|---x-------x----x-------x----x---x-|
|---7-------7----7-------7----7---7-|---5-------5----5-------5----5---5-|
|-----------------------------------|-----------------------------------|


    E    E   +E    E   +E    E   +E    E     +E    E   +E    E   +E    E   +E   +E
|-(20)------------------------------------|-----------------------------------------|
|------(19)-(19)-(19)-(19)-(19)-(19)-(19)-|-(19)-(19)-(19)-(19)-(19)-(19)-(19)-(19)-|
|-----------------------------------------|-----------------------------------------|
|-----------------------------------------|-----------------------------------------|
|-----------------------------------------|-----------------------------------------|
|-----------------------------------------|-----------------------------------------|
|
|   >                                         <
|   Q         E    Q         E    E    E      Q         E    Q         E    E    E
|-----------------------------------------|-----------------------------------------|
|-----------------------------------------|-----------------------------------------|
|---3---------3----3---------3----3----3--|---3---------3----3---------3----3----3--|
|---x---------x----x---------x----x----x--|---x---------x----x---------x----x----x--|
|---1---------1----1---------1----1----1--|---1---------1----1---------1----1----1--|
|-----------------------------------------|-----------------------------------------|


  N.C.
    E   E   E    E   E   E    E   E     E   E   E    E   E   E    E   E
|-(20)-----19--(19)-----19--(19)-20-|-(20)-----19--(19)-----19--(19)-20-|
|------17-(17)------17-(17)---------|------17-(17)------17-(17)---------|
|-----------------------------------|-----------------------------------|
|-----------------------------------|-----------------------------------|
|-----------------------------------|-----------------------------------|
|-----------------------------------|-----------------------------------|
|
|   Q       E    Q       E    E   E     Q       E    Q       E    E   E
|-----------------------------------|-----------------------------------|
|-----------------------------------|-----------------------------------|
|---9-------9----9-------9----9---9-|--11------11---11------11---11--11-|
|---x-------x----x-------x----x---x-|---x-------x----x-------x----x---x-|
|---7-------7----7-------7----7---7-|---9-------9----9-------9----9---9-|
|-----------------------------------|-----------------------------------|


    E   E   E    E   E   E    E   E     E   E   E    E   E   E    E   E
|-(20)-----19--(19)-----19--(19)-20-|-(20)-----19--(19)-----19--(19)-20-|
|------17-(17)------17-(17)---------|------17-(17)------17-(17)---------|
|-----------------------------------|-----------------------------------|
|-----------------------------------|-----------------------------------|
|-----------------------------------|-----------------------------------|
|-----------------------------------|-----------------------------------|
|
|   Q       E    Q       E    E   E     Q       E    Q       E    E   E
|-----------------------------------|-----------------------------------|
|-----------------------------------|-----------------------------------|
|--12------12---12------12---12--12-|---9-------9----9-------9----9---9-|
|---x-------x----x-------x----x---x-|---x-------x----x-------x----x---x-|
|--10------10---10------10---10--10-|--10------10---10------10---10--10-|
|-----------------------------------|-----------------------------------|


  N.C.
    E   E   E    E   E   E    E   E     E   E   E    E   E   E    E   E
|-(20)-----19--(19)-----19--(19)-20-|-(20)-----19--(19)-----19--(19)-20-|
|------17-(17)------17-(17)---------|------17-(17)------17-(17)---------|
|-----------------------------------|-----------------------------------|
|-----------------------------------|-----------------------------------|
|-----------------------------------|-----------------------------------|
|-----------------------------------|-----------------------------------|
|
|   Q       E    Q       E    E   E     Q       E    Q       E    E   E
|-----------------------------------|-----------------------------------|
|-----------------------------------|-----------------------------------|
|---9-------9----9-------9----9---9-|--11------11---11------11---11--11-|
|---x-------x----x-------x----x---x-|---x-------x----x-------x----x---x-|
|---7-------7----7-------7----7---7-|---9-------9----9-------9----9---9-|
|-----------------------------------|-----------------------------------|


    E   E   E    E   E   E    E   E     E   E   E    E   E   E    E   E
|-(20)-----19--(19)-----19--(19)-20-|-(20)-----19--(19)-----19--(19)-20-|
|------17-(17)------17-(17)---------|------17-(17)------17-(17)---------|
|-----------------------------------|-----------------------------------|
|-----------------------------------|-----------------------------------|
|-----------------------------------|-----------------------------------|
|-----------------------------------|-----------------------------------|
|
|   Q       E    Q       E    E   E     Q       E    Q       E    E   E
|-----------------------------------|-----------------------------------|
|-----------------------------------|-----------7------------7----------|
|---8-------8----8-------8----8---8-|---8------(8)---8------(8)---8---8-|
|---x-------x----x-------x----x---x-|---x------(x)---x------(x)---x---x-|
|---6-------6----6-------6----6---6-|---6------(6)---6------(6)---6---6-|
|-----------------------------------|-----------------------------------|


  N.C.
    E   E   E    E   E   E    E   E     E   E   E    E   E   E    E   E
|-(20)-----19--(19)-----19--(19)-20-|-(20)-----19--(19)-----19--(19)-20-|
|------17-(17)------17-(17)---------|------17-(17)------17-(17)---------|
|-----------------------------------|-----------------------------------|
|-----------------------------------|-----------------------------------|
|-----------------------------------|-----------------------------------|
|-----------------------------------|-----------------------------------|
|
|   Q       E    Q       E    E   E     Q       E    Q       E    E   E
|-----------------------------------|-----------------------------------|
|-----------------------------------|-----------------------------------|
|---9-------9----9-------9----9---9-|--11------11---11------11---11--11-|
|---x-------x----x-------x----x---x-|---x-------x----x-------x----x---x-|
|---7-------7----7-------7----7---7-|---9-------9----9-------9----9---9-|
|-----------------------------------|-----------------------------------|


                                      H=H
    E   E   E    E   E   E    E   E     E   E   E    E   E   E    E   E
|-(20)-----19--(19)-----19--(19)-20-|-(20)-----19--(19)-----19--(19)-20-|
|------17-(17)------17-(17)---------|------17-(17)------17-(17)---------|
|-----------------------------------|-----------------------------------|
|-----------------------------------|-----------------------------------|
|-----------------------------------|-----------------------------------|
|-----------------------------------|-----------------------------------|
|
|   Q       E    Q       E    E   E     W
|-----------------------------------|-----------------------------------|
|-----------------------------------|-----------------------------------|
|--12------12---12------12---12--12-|---9-------------------------------|
|---x-------x----x-------x----x---x-|---x-------------------------------|
|--10------10---10------10---10--10-|--10-------------------------------|
|-----------------------------------|-----------------------------------|


 "Are you grieving?!"
  Slightly Faster Q=128
  C5                      D5
  Gtr II
   W                       E.  E.  Q   +E   Q
|-----------------------|-------------------------|
|-----------------------|-------------------------|
|-----------------------|-12--11--11--(11)-11\----|
|-----------------------|-------------------------|
|-----------------------|-10---9---9---(9)--9\----|
|-----------------------|-------------------------|
|
| Gtr III
|  E.  E.  Q   E  E  E     E.  E.  Q    E   E   E
|-----------------------|-------------------------|
|-----------------------|-------------------------|
|-----------------------|-------------------------|
|-10--10--10--10-10-10--|-12--12--12---12--12--12-|
|-10--10--10--10-10-10--|-12--12--12---12--12--12-|
|--8---8---8---8--8--8--|-10--10--10---10--10--10-|


    E5                                             G5    F5
    E. E.    E. E.    S S S S   E. Q      +S       S S E S S E
||----------------------------|--------------------------------|
||o---------------------------|--------------------------------|
||----------------------------|--------------------------------|
||-----3b3.5----3b3.5---------|----3b3.5--(3)pb3.5-----5-----3-|
||o-2--------2----------------|-2------------------5-5-5-3-3-3-|
||--0--------0--------0h3-3h5-|-0------------------3-3-3-1-1-1-|
|
|   E. E.    E. E.    S S S S   E. Q      +S       S S E S S E
||----------------------------|--------------------------------|
||o---------------------------|--------------------------------|
||----------------------------|--------------------------------|
||----------------------------|------------------------5-----3-|
||o-2--------2----------------|-2------------------5-5-5-3-3-3-|
||--0--1b1.5-0--1b1.5-0h3-3h5-|-0--1b1.5--(1)pb1.5-3-3-3-1-1-1-|


  E5                          G#5             F5
  E. E.    E. E.    S S S S   S S S S S S S S S S S S S S S S
|---------------------------|----------------------------------||
|---------------------------|---------------------------------o||
|---------------------------|----------------------------------||
|----3b3.5----3b3.5---------|-6-6-6-6-6-6-6-6-3-3-3-3-3-3-3-3--||
|-2--------2----------------|-6-6-6-6-6-6-6-6-3-3-3-3-3-3-3-3-o||
|-0--------0--------0h3-3h5-|-4-4-4-4-4-4-4-4-1-1-1-1-1-1-1-1--||
|
| E. E.    E. E.    S S S S   S S S S S S S S S S S S S S S S
|---------------------------|----------------------------------||
|---------------------------|---------------------------------o||
|---------------------------|----------------------------------||
|---------------------------|-6-6-6-6-6-6-6-6-3-3-3-3-3-3-3-3--||
|-2--------2----------------|-6-6-6-6-6-6-6-6-3-3-3-3-3-3-3-3-o||
|-0--1b1.5-0--1b1.5-0h3-3h5-|-4-4-4-4-4-4-4-4-1-1-1-1-1-1-1-1--||


 "Yesterday will be the.."
  Bb5                C5
   W                  W
|------------------|-----------------------|
|------------------|-----------------------|
|-14---------------|-14--------------------|
|--x---------------|--x--------------------|
|-12---------------|-12--------------------|
|------------------|-----------------------|
|
|  E. E. Q  E E E     E.  E.  Q   E  E  E
|------------------|-----------------------|
|------------------|-----------------------|
|------------------|-----------------------|
|--8--8--8--8-8-8--|-10--10--10--10-10-10--|
|--8--8--8--8-8-8--|-10--10--10--10-10-10--|
|--6--6--6--6-6-6--|--8---8---8---8--8--8--|


  N.C.                  E Ebb5 N.C.       E EbbE EbbN.C.
 4/4                          5/4
   S S S S E  S S S S E S E.    S S S S E S E. S E.  S S S S E
|----------------------------|---------------------------------|
|-12p0-6p0-5-12p0-6p0-5------|-12p0-6p0-5-----------12p0-6p0-5-|
|-------------------------9--|--------------9----9-------------|
|-------------------------8--|--------------8----8-------------|
|-----------------------7-7--|------------7-7--7-7-------------|
|-----------------------0----|------------0----0---------------|
|
|  PM         PM                PM
|  E   S S E  E   S S E S E.    E   S S E S E. S E.  Q.
|----------------------------|---------------------------------|
|----------------------------|---------------------------------|
|-------------------------9--|--------------9----9-------------|
|-------------------------8--|--------------8----8-------------|
|------7h8p0------7h8p0-7-7--|------7h8p0-7-7--7-7-------------|
|--0----------0---------0----|--0---------0----0---------------|


  Bb5                C5
 4/4
   W                  W
|------------------|-----------------------|
|------------------|-----------------------|
|-14---------------|-14--------------------|
|--x---------------|--x--------------------|
|-12---------------|-12--------------------|
|------------------|-----------------------|
|
|  E. E. Q  E E E     E.  E.  Q   E  E  E
|------------------|-----------------------|
|------------------|-----------------------|
|------------------|-----------------------|
|--8--8--8--8-8-8--|-10--10--10--10-10-10--|
|--8--8--8--8-8-8--|-10--10--10--10-10-10--|
|--6--6--6--6-6-6--|--8---8---8---8--8--8--|


  E5
  E. E.    E. E.    S S S S   E. E.    E. Q.      +S
|---------------------------|------------------------------|
|---------------------------|------------------------------|
|---------------------------|------------------------------|
|----3b3.5----3b3.5---------|----3b3.5----3b3.5---(3)pb3.5-|
|-2--------2----------------|-2--------2-------------------|
|-0--------0--------0h3-3h5-|-0--------0-------------------|
|
| E. E.    E. E.    S S S S   E. E.    E. Q.      +S
|---------------------------|------------------------------|
|---------------------------|------------------------------|
|---------------------------|------------------------------|
|---------------------------|------------------------------|
|-2--------2----------------|-2--------2-------------------|
|-0--1b1.5-0--1b1.5-0h3-3h5-|-0--1b1.5-0--1b1.5---(1)pb1.5-|


  Bb5                C5
 4/4
   W                  W
|------------------|-----------------------|
|------------------|-----------------------|
|-14---------------|-14--------------------|
|--x---------------|--x--------------------|
|-12---------------|-12--------------------|
|------------------|-----------------------|
|
|  E. E. Q  E E E     E.  E.  Q   E  E  E
|------------------|-----------------------|
|------------------|-----------------------|
|------------------|-----------------------|
|--8--8--8--8-8-8--|-10--10--10--10-10-10--|
|--8--8--8--8-8-8--|-10--10--10--10-10-10--|
|--6--6--6--6-6-6--|--8---8---8---8--8--8--|


  D5
   W           +H.       q
|-----------|---------------|
|-----------|---------------|
|-10--------|-(10)------10--|
|--x--------|--(x)-------x--|
|--8--------|--(8)-------8--|
|-----------|---------------|
|
|  W           +H.       q
|-----------|---------------|
|-----------|---------------|
|-----------|---------------|
|-12--------|-(12)------12--|
|-12--------|-(12)------12--|
|-10--------|-(10)------10--|


   "Now we grieve for.."
    Bb5
     S  S  S  S  S  S  S  S  S  S  S  S  S  S  S  S
||--------------------------------------------------|
||o-------------------------------------------------|
||--10-10-10-10-10-10-10-10-10-10-10-10-10-10-10-10-|
||---x--x--x--x--x--x--x--x--x--x--x--x--x--x--x--x-|
||o--8--8--8--8--8--8--8--8--8--8--8--8--8--8--8--8-|
||--------------------------------------------------|
|
|    S  S  S  S  S  S  S  S  S  S  S  S  S  S  S  S
||--------------------------------------------------|
||o-------------------------------------------------|
||--------------------------------------------------|
||---8--8--8--8--8--8--8--8--8--8--8--8--8--8--8--8-|
||o--8--8--8--8--8--8--8--8--8--8--8--8--8--8--8--8-|
||---6--6--6--6--6--6--6--6--6--6--6--6--6--6--6--6-|


  1.
  C5
   S  S  S  S  S  S  S  S  S  S  S  S  S  S  S  S
|--------------------------------------------------|
|--------------------------------------------------|
|--9--9--9--9--9--9--9--9--9--9--9--9--9--9--9--9--|
|--x--x--x--x--x--x--x--x--x--x--x--x--x--x--x--x--|
|--7--7--7--7--7--7--7--7--7--7--7--7--7--7--7--7--|
|--------------------------------------------------|
|
|  S  S  S  S  S  S  S  S  S  S  S  S  S  S  S  S
|--------------------------------------------------|
|--------------------------------------------------|
|--------------------------------------------------|
|-10-10-10-10-10-10-10-10-10-10-10-10-10-10-10-10--|
|-10-10-10-10-10-10-10-10-10-10-10-10-10-10-10-10--|
|--8--8--8--8--8--8--8--8--8--8--8--8--8--8--8--8--|


  A5
  S S S S S S S S S S S S S S S S
|---------------------------------|
|---------------------------------|
|-9-9-9-9-9-9-9-9-9-9-9-9-9-9-9-9-|
|-x-x-x-x-x-x-x-x-x-x-x-x-x-x-x-x-|
|-7-7-7-7-7-7-7-7-7-7-7-7-7-7-7-7-|
|---------------------------------|
|
| S S S S S S S S S S S S S S S S
|---------------------------------|
|---------------------------------|
|---------------------------------|
|-7-7-7-7-7-7-7-7-7-7-7-7-7-7-7-7-|
|-7-7-7-7-7-7-7-7-7-7-7-7-7-7-7-7-|
|-5-5-5-5-5-5-5-5-5-5-5-5-5-5-5-5-|


  C5                            D5
   S  S  S  S  S  S  S  S  S  S  S  S  S  S  S  S
|--------------------------------------------------||
|-------------------------------------------------o||
|-12-12-12-12-12-12-12-12-12-12-14-14-14-14-14-14--||
|--x--x--x--x--x--x--x--x--x--x--x--x--x--x--x--x--||
|-10-10-10-10-10-10-10-10-10-10-12-12-12-12-12-12-o||
|--------------------------------------------------||
|
|  S  S  S  S  S  S  S  S  S  S  S  S  S  S  S  S
|--------------------------------------------------||
|-------------------------------------------------o||
|--------------------------------------------------||
|-10-10-10-10-10-10-10-10-10-10-12-12-12-12-12-12--||
|-10-10-10-10-10-10-10-10-10-10-12-12-12-12-12-12-o||
|--8--8--8--8--8--8--8--8--8--8-10-10-10-10-10-10--||


  2.
  C5
   S  S  S  S  S  S  S  S  S  S  S  S  S  S  S  S
|-------------------------------------------------|
|-------------------------------------------------|
|-14-14-14-14-14-14-14-14-12-12-12-12-12-12-12-12-|
|--x--x--x--x--x--x--x--x--x--x--x--x--x--x--x--x-|
|-12-12-12-12-12-12-12-12-10-10-10-10-10-10-10-10-|
|-------------------------------------------------|
|
|  S  S  S  S  S  S  S  S  S  S  S  S  S  S  S  S
|-------------------------------------------------|
|-------------------------------------------------|
|-------------------------------------------------|
|-10-10-10-10-10-10-10-10-10-10-10-10-10-10-10-10-|
|-10-10-10-10-10-10-10-10-10-10-10-10-10-10-10-10-|
|--8--8--8--8--8--8--8--8--8--8--8--8--8--8--8--8-|


  A5
  S S S S S S S S S S S S S S S S
|---------------------------------|
|---------------------------------|
|-9-9-9-9-9-9-9-9-9-9-9-9-9-9-9-9-|
|-x-x-x-x-x-x-x-x-x-x-x-x-x-x-x-x-|
|-7-7-7-7-7-7-7-7-7-7-7-7-7-7-7-7-|
|---------------------------------|
|
| S S S S S S S S S S S S S S S S
|---------------------------------|
|---------------------------------|
|---------------------------------|
|-7-7-7-7-7-7-7-7-7-7-7-7-7-7-7-7-|
|-7-7-7-7-7-7-7-7-7-7-7-7-7-7-7-7-|
|-5-5-5-5-5-5-5-5-5-5-5-5-5-5-5-5-|


  N.C.
                                               2/4
                                                Gtr IV
  W          W          W          H.      q     E E E E
|----------|----------|----------|------------|----------|
|----------|----------|----------|------------|----------|
|----------|----------|----------|------------|----------|
|-5--------|-7--------|-5--------|-7-------7--|-10-8-7---|
|----------|----------|----------|------------|--------8-|
|-6--------|-6--------|-6--------|-6-------6--|----------|
|
| W          W          W          H.      q     H
|----------|----------|----------|------------|----------|
|----------|----------|----------|------------|----------|
|----------|----------|----------|------------|----------|
|-5--------|-7--------|-5--------|-7-------7--|----------|
|----------|----------|----------|------------|----------|
|-6--------|-6--------|-6--------|-6-------6--|----------|


    (Dm)
   6/4
     Q.   E  E E  Q   +E  E  E E    Q.   E  E E  Q  Q   Q
||-------------------------------|-------------------------|
||o------------------------------|-------------------------|
||-------------------------------|-------------------------|
||-------------7---------------7-|------------7------------|
||o-------8---------------8------|-------8-----------------|
||--10------10---10--(10)---10---|-10------10---10--8--12--|
|
|    W                              W
||-------------------------------|-------------------------|
||o------------------------------|-------------------------|
||-------------------------------|-------------------------|
||-------------------------------|-------------------------|
||o------------------------------|-------------------------|
||-------------------------------|-------------------------|


                                                1.,2.
  Bb5                                                  N.C.
 6/4                                                  2/4
  PM------|   PM------|     PM------|   PM----|
  E E E E E E E E E E E E   E E E E E E E E E E  Q       E   E E E  3x
|-------------------------|--------------------------|--------------||
|-------------------------|--------------------------|-------------o||
|-------------------------|--------------------------|--------------||
|-------------------------|--------------------------|--10---8-7----||
|-----------8-----------8-|-----------8--------------|-----------8-o||
|-6-6-6-6-6-6-6-6-6-6-6-6-|-6-6-6-6-6-6-6-6-6-6------|--------------||
|
|                                                        >
| PM------|   PM------|     PM------|   PM----|
| E E E E E E E E E E E E   E E E E E E E E E E  Q      +H          3x
|-------------------------|--------------------------|--------------||
|-------------------------|--------------------------|-------------o||
|-------------------------|---------------------<7>--|-(<7>)--------||
|-------------------------|--------------------------|--------------||
|-----------8-----------8-|-----------8--------------|-------------o||
|-6-6-6-6-6-6-6-6-6-6-6-6-|-6-6-6-6-6-6-6-6-6-6------|--------------||


  3.
  Bb5   A5
 1/4   6/4
  PM    PM------|   PM------|     PM------|   PM------|
  E E   E E E E E E E E E E E E   E E E E E E E E E E E E
|-----|-------------------------|-------------------------|
|-----|-------------------------|-------------------------|
|-----|-------------------------|-------------------------|
|-----|-------------------------|-------------------------|
|---8-|-----------7-----------7-|-----------7-----------7-|
|-6-6-|-5-5-5-5-5-5-5-5-5-5-5-5-|-5-5-5-5-5-5-5-5-5-5-5-5-|
|
| PM    PM------|   PM------|     PM------|   PM------|
| E E   E E E E E E E E E E E E   E E E E E E E E E E E E
|-----|-------------------------|-------------------------|
|-----|-------------------------|-------------------------|
|-----|-------------------------|-------------------------|
|-----|-------------------------|-------------------------|
|---8-|-----------7-----------7-|-----------7-----------7-|
|-6-6-|-5-5-5-5-5-5-5-5-5-5-5-5-|-5-5-5-5-5-5-5-5-5-5-5-5-|


 "Death is just an excuse.."
  Slightly Faster Q=130
  G5
 6/4
   E E  E E E E  E E  E  E E E    E  E  E E E E  E E  E  E E E
|------------------------------|-------------------------------|
|------------------------------|-------------------------------|
|------10------------10--------|-------10------------10--------|
|---------7---7----------7---7-|----------7---7----------7---7-|
|----8------8------8-------8---|-----8------8------8-------8---|
|-10------------10-------------|-10-------------10-------------|
|
|  W                 +H          +W                  +H
|------------------------------|-------------------------------|
|------------------------------|-------------------------------|
|------------------------------|-------------------------------|
|--5-----------------(5)-------|-(5)-----------------(5)-------|
|--5-----------------(5)-------|-(5)-----------------(5)-------|
|--3-----------------(3)-------|-(3)-----------------(3)-------|


    D5          Bb5           G5          N.C.
   6/4                       7/4
    Gtr II
    E E E E E E E E E E E E   E E E E E E  E  E  E  E  E  E  E  E
||--------------------------|-------------------------10-13-12-13-|
||o-------------------------|----------------10-11-13-------------|
||--7-7-7-7-7-7-7-7-7-7-7-7-|-7-7-7-7-7-7-------------------------|
||--x-x-x-x-x-x-x-x-x-x-x-x-|-x-x-x-x-x-x-12----------------------|
||o-5-5-5-5-5-5-5-5-5-5-5-5-|-5-5-5-5-5-5-------------------------|
||--------------------------|-------------------------------------|
|
|   Gtr III
|   E E E E E E E E E E E E   E E E E E E  E  E  E  E  E  E  E  E
||--------------------------|-------------------------------------|
||o-------------------------|-------------------------------------|
||--7-7-7-7-7-7-------------|-------------------------------------|
||--7-7-7-7-7-7-8-8-8-8-8-8-|-5-5-5-5-5-5-12-11-12-14-12-11-------|
||o-5-5-5-5-5-5-8-8-8-8-8-8-|-5-5-5-5-5-5-------------------12-13-|
||--------------6-6-6-6-6-6-|-3-3-3-3-3-3-------------------------|


  1.
  D5                F5
 6/4
   E  E  E  E  E  E  E  E  E  E  E  E
|-------------------------------------|
|-------------------------------------|
|-14-14-14-14-14-14-12-12-12-12-12-12-|
|--x--x--x--x--x--x--x--x--x--x--x--x-|
|-12-12-12-12-12-12-10-10-10-10-10-10-|
|-------------------------------------|
|
|  E  E  E  E  E  E  E  E  E  E  E  E
|-------------------------------------|
|-------------------------------------|
|--7--7--7--7--7--7-10-10-10-10-10-10-|
|--7--7--7--7--7--7-10-10-10-10-10-10-|
|--5--5--5--5--5--5--8--8--8--8--8--8-|
|-------------------------------------|


  C5                N.C.
   E  E  E  E  E  E  E  E  E  E E   E
|----------------------------------------||
|---------------------------------------o||
|-10-10-10-10-10-10-10-10-10--5-5---5----||
|--x--x--x--x--x--x--x--x--x--x-x---x----||
|--8--8--8--8--8--8--8--8--8--3-3---3---o||
|----------------------------------------||
|
|                          ~~~
|  E  E  E  E  E  E  E  E  Q.      +E
|----------------------------------------||
|---------------------------------------o||
|-------------------10--9----------------||
|-10-10-10-10-10-10-------10------(10)\--||
|-10-10-10-10-10-10---------------------o||
|--8--8--8--8--8--8----------------------||


  2.
  D5          F5                  Ebb5              Ebb5
  E E E E E E  E  E  E  E  E  E   W        +H       W        +H
|-------------------------------|-----------------|-----------------|
|-------------------------------|-----------------|-----------------|
|-7-7-7-7-7-7-10-10-10-10-10-10-|-9--------(9)----|-9--------(9)----|
|-x-x-x-x-x-x--x--x--x--x--x--x-|-8--------(8)----|-8--------(8)----|
|-5-5-5-5-5-5--8--8--8--8--8--8-|-7--------(7)----|-7--------(7)----|
|-------------------------------|-----------------|-----------------|
|
| E E E E E E  E  E  E  E  E  E   W        +H       W        +H
|-------------------------------|-----------------|-----------------|
|-------------------------------|-----------------|-----------------|
|-7-7-7-7-7-7-10-10-10-10-10-10-|-----------------|-----------------|
|-7-7-7-7-7-7-10-10-10-10-10-10-|-2--------(2)----|-2--------(2)----|
|-5-5-5-5-5-5--8--8--8--8--8--8-|-1--------(1)----|-1--------(1)----|
|-------------------------------|-0--------(0)----|-0--------(0)----|


  E5
 4/4
  Gtr IV
  PM--------------------------------------------|
  E E E E E E E E    E   E   E   E   E   E   E   E
|-----------------|---------------------------------|
|-----------------|---------------------------------|
|-----9-------9---|----------9---------------9------|
|---8---8---8---8-|------8-------8-------8-------8--|
|-7-------7-------|--7---------------7--------------|
|-----------------|---------------------------------|
|
| PM--------------------------------------------|
| E E E E E E E E    E   E   E   E   E   E   E   E
|-----------------|---------------------------------|
|-----------------|---------------------------------|
|-----------------|---------------------------------|
|-----------------|-(2)-(2)-(2)-(2)-(2)-(2)-(2)-(2)-|
|-2-2-2-2-2-2-2-2-|--2---2---2---2---2---2---2---2--|
|-0-0-0-0-0-0-0-0-|--0---0---0---0---0---0---0---0--|


  E5
  Gtr II
   S  S  S  S  S  S  S  S  S  S  S  S  S   S  S   S
|---------------------------------------------------|
|---------------------------------------------------|
|-10-10-10-10-10-10-10-10-12-12-12-12-12--12-12--12-|
|--x--x--x--x--x--x--x--x--x--x--x--x--x---x--x---x-|
|--8--8--8--8--8--8--8--8-10-10-10-10-10--10-10--10-|
|---------------------------------------------------|
|
|  PM---------------------------|
|  E     E     E     E     E     E     E      E
|---------------------------------------------------|
|---------------------------------------------------|
|-------------------------------------(4)----(4)----|
|--2-----2-----2-----2-----2-----2-----2------2-----|
|--2-----2-----2-----2-----2-----2-----2------2-----|
|--0-----0-----0-----0-----0-----0-----0------0-----|


   S   S  S   S  S   S  S   S  S   S  S   S  S   S  S   S
|---------------------------------------------------------|
|---------------------------------------------------------|
|-14--14-14--14-14--14-14--14-14--14-14--14-14--14-14--14-|
|--x---x--x---x--x---x--x---x--x---x--x---x--x---x--x---x-|
|-12--12-12--12-12--12-12--12-12--12-12--12-12--12-12--12-|
|---------------------------------------------------------|
|
|  E      E      E      E      E      E      E      E
|---------------------------------------------------------|
|---------------------------------------------------------|
|-(4)----(4)----(4)----(4)----(4)----(4)----(4)----(4)----|
|--2------2------2------2------2------2------2------2-----|
|--2------2------2------2------2------2------2------2-----|
|--0------0------0------0------0------0------0------0-----|


   Breakdown
                       1.,2.,3.            4.
    BbA5N.CBsus4 N.Bsus4 BbA5N.BsusN.Bsus4   BbA5
   4/4
    E E E  E E E E E   E E E E E E E E  4x E E E H    E
||------0--0-0-0-0-0-|-------0-0-0-0-0--||--------------|
||o-----6--5-5-5-6-5-|-------6-5-5-6-5-o||--------------|
||---------4-4-4---4-|---------4-4---4--||--------------|
||--8-7--------------|---8-7------------||---8-7--------|
||o-8-7--------------|---8-7-----------o||---8-7--------|
||--6-5--------------|---6-5------------||---6-5--------|
|
|   E E H.             E E E H       E  4x E E E H    E
||-------------------|------------------||--------------|
||o------------------|-----------------o||--------------|
||-------------------|------------------||--------------|
||--8-7--------------|---8-7------------||---8-7--------|
||o-8-7--------------|---8-7-----------o||---8-7--------|
||--6-5--------------|---6-5------------||---6-5--------|


    Bb5 A5         BbA5               Bb5  A5   Esus4Bb5  A5Esus4A5
    Gtr I
     Q.        Q.      E    E      E    E    E    E    Q      Q     4x
||------------22-----(22)------|----------------------22----(22)----||
||o-18-------(18)----------18--|-(18)-(18)--18--(21)---------18----o||
||--------------------21--(21)-|-(21)--21--(21)--21--(21)-----------||
||-----------------------------|------------------------------------||
||o----------------------------|-----------------------------------o||
||-----------------------------|------------------------------------||
|
|   Gtrs II, III
|    E  E Q.       E   E    E      E    E    E    E    E  E   E  E  4x
||-----------------------------|------------------------------------||
||o----------------------------|-----------------------------------o||
||-----------------------------|------------------------------------||
||---8--7----------8---7-------|--------8----7----7----8--7---7--7--||
||o--8--7----------8---7-------|--------8----7----7----8--7---7--7-o||
||---6--5----------6---5-------|--------6----5----0----6--5---0--5--||


   Outro
    BbA5            BbA5EsBbA5EsA54
    Gtrs II, III
    E E H.        E E E E E E E E  4x
||--------------|------------------||
||o-------------|-----------------o||
||--------------|------------------||
||--8-7---------|---8-7-7-8-7-7-7--||
||o-8-7---------|---8-7-7-8-7-7-7-o||
||--6-5---------|---6-5-0-6-5-0-5--||


  BbA5          N.C.
  E E H.        W
|-------------|------*|
|-------------|------*|
|-------------|------*|
|-8-7---------|------*|
|-8-7---------|------*|
|-6-5---------|------*|





Comments


Popular Bled tabs & chords
His First Crush Bass Tabs
I Never Met Another Gemini Bass Tabs
Daylight Bombings Intro Tabs
House Of Suffering Tabs
I Never Met Another Gemini (Intro) Tabs
Last American Cowboy Tabs
Ok But This Is How It Really Happened Tabs
Porcelain Hearts And Hammers For Teeth (Intro) Tabs
Porcelain Hearts And Hammers For Teeth Intro 1 Tabs
Sound Of Sulfur 1 Tabs


Song lyrics



↑ Back to top | Tablatures and chords are parodies/interpretations of the original songs. You may use it for private study, scholarship, research or language learning purposes only
© 2014 AZChords.com Contact us | Privacy policy | DMCA | Add/correct tabs | Request tabs | Top 50 tabs