>
 >
Ok But This Is How It Really Happened

Ok But This Is How It Really Happened Guitar Tabs

Bled - Ok But This Is How It Really Happened chords, tabs, tablatures, lyrics

Guitar lessons | Add/correct | Request | Top 50 tabs Artists:  A B C D E F G H I J K L M N O P Q R S T U V W X Y Z 0-9

Ok But This Is How It Really Happened Guitar Tabs – Bled

CD, Sheet music, Poster

Do you like Ok But This Is How It Really Happened? Share with your friends now
Bass TabsTabs
#------------------------------------------------------------------------------##

                     OK, BUT THIS IS HOW IT REALLY HAPPENED
                             As recorded by The Bled
                   (From the 2003 Album AMBULANCE ROMANCE EP)

Words and Music by The Bled
Arranged by The Bled

Gtr I (Eb Ab Db Gb Bb Eb) - 'Dist. Gtr. I'
Gtr II (Eb Ab Db Gb Bb Eb) - 'Dist. Gtr. II'
Gtr III (Eb Ab Db Gb Bb Eb) - 'Dist. Gtr. III'
Gtr IV (Eb Ab Db Gb Bb Eb) - 'Clean Gtr. I'
Gtr V (Eb Ab Db Gb Bb Eb) - 'Clean Gtr. II'

 Intro
  Dancefight Q=136
  N.C.
 1/4  4/4
  Gtr I
                            <
  Q    W          H.        Q      +W            +W
|----|----------|---------------|-------------|---------|
|----|----------|---------------|-------------|---------|
|----|----------|---------[11]--|-(11)--------|-(11)----|
|----|----------|---------------|-------------|---------|
|----|----------|---------------|-------------|---------|
|----|----------|---------------|-------------|---------|


  E5
  Gtr I
   +W                                 +W
|----------------------------------|----------------------------------|
|----------------------------------|----------------------------------|
|-(11)-----------------------------|-(11)-----------------------------|
|----------------------------------|----------------------------------|
|----------------------------------|----------------------------------|
|----------------------------------|----------------------------------|
|
| Gtr II
|   PM-----------------------------------------------------------------
|   S  S S e S S S S S S S S S S S     S  S S e S S S S S S S S S S S
|----------------------------------|----------------------------------|
|----------------------------------|----------------------------------|
|----------------------------------|----------------------------------|
|----------------------------------|----------------------------------|
|---2--2-2-2-2-2---2-2-2-2-2-2-2-2-|---2--2-2-2-2-2---2-2-2-2-2-2-2-2-|
|---0--0-0-0-0-0---0-0-0-0-0-0-0-0-|---0--0-0-0-0-0---0-0-0-0-0-0-0-0-|


   +W                                 +W
|----------------------------------|-----------------------------------|
|----------------------------------|-----------------------------------|
|-(11)-----------------------------|-(11)------------------------------|
|----------------------------------|-----------------------------------|
|----------------------------------|-----------------------------------|
|----------------------------------|-----------------------------------|
|
|-------------------------------------------------------------------|
|   S  S S e S S S S S S S S S S S     S  S S e S S S S S S S S S S S
|----------------------------------|-----------------------------------|
|----------------------------------|-----------------------------------|
|----------------------------------|-----------------------------------|
|----------------------------------|-----------------------------------|
|---2--2-2-2-2-2---2-2-2-2-2-2-2-2-|---2--2-2-2-2-2---2-2-2-2-2-2-2-2--|
|---0--0-0-0-0-0---0-0-0-0-0-0-0-0-|---0--0-0-0-0-0---0-0-0-0-0-0-0-0--|


    N.C.
    Gtrs I, II
    PM-----------------------------------------------------------------
    s s s s s s s s s s s s s s s s   s s s s s s s s s s s s s s s s
||--7-7-7-------5-5-----------------|-7-7-7-------5-5-----------------|
||o-------------------------8-8-7-7-|-------------------------8-8-7-7-|
||--------4-4-4-----4-4-4-4---------|-------4-4-4-----4-4-4-4---------|
||----------------------------------|---------------------------------|
||o---------------------------------|---------------------------------|
||----------------------------------|---------------------------------|


 -----------------------------------------------------------------|
  s s s s s s s s s s s s s s s s   s s s s s s s s s s s s s s s s
|-7-7-7-------5-5-----------------|-7-7-7-------------------------------||
|-------------------------8-8-7-7-|------------------------------------o||
|-------4-4-4-----4-4-4-4---------|-------4-4-4-4-4-4-4-4-4-4-4-4-4-----||
|---------------------------------|-------------------------------------||
|---------------------------------|------------------------------------o||
|---------------------------------|-------------------------------------||


   Part I
    N.C.              E5        N.C.              E5
                      PM----|                     PM----|
    E +S  E. E +S  E. S S S S   E +S  E. E +S  E. S S S S
||----------------------------|---------------------------|
||o---------------------------|---------------------------|
||--5-(5)S4--5-(5)S4----------|-5-(5)S4--5-(5)S4----------|
||--x-(x)-x--x-(x)-x----------|-x-(x)-x--x-(x)-x----------|
||o-3-(3)S2--3-(3)S2--2-2-2-2-|-3-(3)S2--3-(3)S2--2-2-2-2-|
||--------------------0-0-0-0-|-------------------0-0-0-0-|


  N.C.              E5        G5       A5
                    PM----|
  E +S  E. E +S  E. S S S S   E. S S S E. S S S S S S S
|---------------------------|-----------------------------||
|---------------------------|----------------------------o||
|-5-(5)S4--5-(5)S4----------|-----------------------------||
|-x-(x)-x--x-(x)-x----------|-5--5-5-x-7--7-7-7-7-7-7-7---||
|-3-(3)S2--3-(3)S2--2-2-2-2-|-5--5-5-x-7--7-7-7-7-7-7-7--o||
|-------------------0-0-0-0-|-3--3-3-x-5--5-5-5-5-5-5-5---||


    N.C.        E5          N.C.        E5
    E +S  E. Q  e S S S S   E +S  E. Q  e S S S S
||------------------------|-----------------------|
||o-----------------------|-----------------------|
||--5-(5)S4---------------|-5-(5)S4---------------|
||--x-(x)-x---------------|-x-(x)-x---------------|
||o-3-(3)S2-----2-2-2-2-2-|-3-(3)S2-----2-2-2-2-2-|
||--------------0-0-0-0-0-|-------------0-0-0-0-0-|


  N.C.        E5          G5       A5
  E +S  E. Q  e S S S S   E. S S S E. S S S S S S S
|-----------------------|-----------------------------||
|-----------------------|----------------------------o||
|-5-(5)S4---------------|-----------------------------||
|-x-(x)-x---------------|-5--5-5-x-7--7-7-7-7-7-7-7---||
|-3-(3)S2-----2-2-2-2-2-|-5--5-5-x-7--7-7-7-7-7-7-7--o||
|-------------0-0-0-0-0-|-3--3-3-x-5--5-5-5-5-5-5-5---||


 Part II
  F5
  Gtr I
  S S S S S S S S S S S S S S S S    S  S S S S S S S S S S S S S S S
|-8-8-8-------5-5-----------------|--8--8-8-------5-5-----------------|
|-------------------------8-8-----|---------------------------8-8-----|
|-------4-4-4-----4-4-4-4-----4-4-|---------4-4-4-----4-4-4-4-----4-4-|
|---------------------------------|-----------------------------------|
|---------------------------------|-----------------------------------|
|---------------------------------|-----------------------------------|
|
| Gtr II
| W                                 +W
|---------------------------------|-----------------------------------|
|---------------------------------|-----------------------------------|
|---------------------------------|-----------------------------------|
|-3-------------------------------|-(3)-------------------------------|
|-3-------------------------------|-(3)-------------------------------|
|-1-------------------------------|-(1)-------------------------------|


  E5
  S S S S S S S S S S S S S S S S    S  S S S S S S S S S S S S S S S
|-8-8-8-------5-5-----------------|--8--8-8-8-----5-5--------------------||
|-------------------------8-8-----|---------------------------8-8--------||
|-------4-4-4-----4-4-4-4-----4-4-|-----------4-4-----4-4-4-4-----4-4----||
|---------------------------------|--------------------------------------||
|---------------------------------|--------------------------------------||
|---------------------------------|--------------------------------------||
|
| W                                 +W
|---------------------------------|--------------------------------------||
|---------------------------------|--------------------------------------||
|---------------------------------|--------------------------------------||
|-2-------------------------------|-(2)----------------------------------||
|-2-------------------------------|-(2)----------------------------------||
|-0-------------------------------|-(0)----------------------------------||


 Part III
  (C)              (D)
  Gtr I
  E. E. Q  E E E    E.  E.  Q   E  E  E
|----------------|----------------------|
|----------------|----------------------|
|-9--9--9--9-9-9-|-11--11--11--11-11-11-|
|-x--x--x--x-x-x-|--x---x---x---x--x--x-|
|-7--7--7--7-7-7-|--9---9---9---9--9--9-|
|----------------|----------------------|
|
| Gtr II
| E. E. Q  E E E    E.  E.  Q   E  E  E
|----------------|----------------------|
|----------------|----------------------|
|-5--5--5--5-5-5-|--7---7---7---7--7--7-|
|-x--x--x--x-x-x-|--x---x---x---x--x--x-|
|-3--3--3--3-3-3-|--5---5---5---5--5--5-|
|----------------|----------------------|


  N.C.
  S S S S S S S S S S S S S S E   S S S S S S S S S S S S S S E
|-------------------------------|-------------------------------|
|-------------------------------|-------------------------------|
|-------------------------------|-------------------------------|
|-----------------5p0-----------|-----------------5p0-----------|
|-----3p0-2p0-3p0-----3p0-2p0---|-----3p0-2p0-3p0-----3p0-2p0---|
|-1p0-------------------------0-|-1p0-------------------------0-|
|
| S S S S S S S S S S S S S S E   S S S S S S S S S S S S S S E
|-------------------------------|-------------------------------|
|-------------------------------|-------------------------------|
|-------------------------------|-------------------------------|
|-----------------5p0-----------|-----------------5p0-----------|
|-----3p0-2p0-3p0-----3p0-2p0---|-----3p0-2p0-3p0-----3p0-2p0---|
|-1p0-------------------------0-|-1p0-------------------------0-|


  (C)              (D)
  E. E. Q  E E E    E.  E.  Q   E  E  E
|----------------|----------------------|
|----------------|----------------------|
|-9--9--9--9-9-9-|-11--11--11--11-11-11-|
|-x--x--x--x-x-x-|--x---x---x---x--x--x-|
|-7--7--7--7-7-7-|--9---9---9---9--9--9-|
|----------------|----------------------|
|
| E. E. Q  E E E    E.  E.  Q   E  E  E
|----------------|----------------------|
|----------------|----------------------|
|-5--5--5--5-5-5-|--7---7---7---7--7--7-|
|-x--x--x--x-x-x-|--x---x---x---x--x--x-|
|-3--3--3--3-3-3-|--5---5---5---5--5--5-|
|----------------|----------------------|


  N.C.
                     9/8
     PM|    PM----|      PM|    PM------|
   E E E  E E E E E    E E E  E E E E E E
|-------------------|---------------------|
|-------------------|---------------------|
|-12-----11---------|-12-----11-----------|
|--x------x---------|--x------x-----------|
|-10------9---------|-10------9-----------|
|----0-0----0-0-0-0-|----0-0----0-0-0-0-0-|
|
|    PM|    PM----|      PM|    PM------|
|  E E E  E E E E E    E E E  E E E E E E
|-------------------|---------------------|
|-------------------|---------------------|
|-12-----11---------|-12-----11-----------|
|--x------x---------|--x------x-----------|
|-10------9---------|-10------9-----------|
|----0-0----0-0-0-0-|----0-0----0-0-0-0-0-|


  (C)              (D)
 4/4
  E. E. Q  E E E    E.  E.  Q   E  E  E
|----------------|----------------------|
|----------------|----------------------|
|-9--9--9--9-9-9-|-11--11--11--11-11-11-|
|-x--x--x--x-x-x-|--x---x---x---x--x--x-|
|-7--7--7--7-7-7-|--9---9---9---9--9--9-|
|----------------|----------------------|
|
| E. E. Q  E E E    E.  E.  Q   E  E  E
|----------------|----------------------|
|----------------|----------------------|
|-5--5--5--5-5-5-|--7---7---7---7--7--7-|
|-x--x--x--x-x-x-|--x---x---x---x--x--x-|
|-3--3--3--3-3-3-|--5---5---5---5--5--5-|
|----------------|----------------------|


  N.C.
  S S S S S S S S S S S S S S E   S S S S S S S S S S S S S S E
|-------------------------------|---------------------------------|
|-------------------------------|---------------------------------|
|-------------------------------|---------------------------------|
|-----------------5p0-----------|-----------------5p0-------------|
|-----3p0-2p0-3p0-----3p0-2p0---|-----3p0-2p0-3p0-----3p0-2p0-----|
|-1p0-------------------------0-|-1p0-------------------------0---|
|
| W                               W
|-------------------------------|---------------------------------|
|-------------------------------|---------------------------------|
|-------------------------------|---------------------------------|
|-------------------------------|---------------------------------|
|-------------------------------|---------------------------------|
|-------------------------------|---------------------------------|


  N.C.
  S S S S S S S S S S S S S S E   S S S S S S S S S S S S S S E
|-------------------------------|-------------------------------|
|-------------------------------|-------------------------------|
|-------------------------------|-------------------------------|
|-----------------5p0-----------|-----------------5p0-----------|
|-----3p0-2p0-3p0-----3p0-2p0---|-----3p0-2p0-3p0-----3p0-2p0---|
|-1p0-------------------------0-|-1p0-------------------------0-|
|
| S S S S S S S S S S S S S S E   S S S S S S S S S S S S S S E
|-------------------------------|-------------------------------|
|-------------------------------|-------------------------------|
|-------------------------------|-------------------------------|
|-----------------5p0-----------|-----------------5p0-----------|
|-----3p0-2p0-3p0-----3p0-2p0---|-----3p0-2p0-3p0-----3p0-2p0---|
|-1p0-------------------------0-|-1p0-------------------------0-|


  (C)              (D)
  E. E. Q  E E E    E.  E.  Q   E  E  E
|----------------|----------------------|
|----------------|----------------------|
|-9--9--9--9-9-9-|-11--11--11--11-11-11-|
|-x--x--x--x-x-x-|--x---x---x---x--x--x-|
|-7--7--7--7-7-7-|--9---9---9---9--9--9-|
|----------------|----------------------|
|
| E. E. Q  E E E    E.  E.  Q   E  E  E
|----------------|----------------------|
|----------------|----------------------|
|-5--5--5--5-5-5-|--7---7---7---7--7--7-|
|-x--x--x--x-x-x-|--x---x---x---x--x--x-|
|-3--3--3--3-3-3-|--5---5---5---5--5--5-|
|----------------|----------------------|


  N.C.
  Gtrs I, II
     PM|    PM----|      PM|    PM----|
   E E E  E E E E E    E E E  E E E E E
|-------------------|-------------------|
|-------------------|-------------------|
|-12-----11---------|-12-----11---------|
|--x------x---------|--x------x---------|
|-10------9---------|-10------9---------|
|----0-0----0-0-0-0-|----0-0----0-0-0-0-|


                     9/8
     PM|    PM----|      PM|    PM----|
   E E E  E E E E E    E E E  E E E E E E
|-------------------|----------------------|
|-------------------|----------------------|
|-12-----11---------|-12-----11------------|
|--x------x---------|--x------x------------|
|-10------9---------|-10------9------------|
|----0-0----0-0-0-0-|----0-0----0-0-0-0-0--|


  Cmaj7
 2/2
              >                         >
  W          +W            W           +W
|----------|------------|------------|--------||
|----------|------------|------------|--------||
|-9--------|-(9)--------|-(9)--------|-(9)----||
|-9--------|-(9)--------|-(9)--------|-(9)----||
|-7--------|-(7)--------|-(7)--------|-(7)----||
|-8--------|-(8)--------|-(8)--------|-(8)----||


   Part IV
    (C/B)
    Gtr IV
     E  E  E  E  E  E  E  E    E  E  E  E  E  E  E  E
||--------------------------|-------------------------|
||o-13-13-13-13-13-13-13-13-|-13-13-13-13-13-13-13-13-|
||--------------------------|-------------------------|
||--------------------------|-------------------------|
||o-------------------------|-------------------------|
||--------------------------|-------------------------|
|
|   Gtr V
|    E  E  E  E  E  E  E  E    E  E  E  E  E  E  E  E
||--------------------------|-------------------------|
||o-------------------------|-------------------------|
||---------------9----------|--------------9----------|
||-----10----10----10----10-|----10----10----10----10-|
||o-14----14----------14----|-14----14----------14----|
||--------------------------|-------------------------|


   E  E  E  E  E  E  E  E    E  E  E  E  E  E  E  E
|-------------------------|--------------------------|
|-13-12-12-12-12-12-12-12-|-12-12-12-12-12-12-12-12--|
|-------------------------|--------------------------|
|-------------------------|--------------------------|
|-------------------------|--------------------------|
|-------------------------|--------------------------|
|
|  E  E  E  E  E  E  E  E    E  E  E  E  E  E  E  E
|-------------------------|--------------------------|
|-------------------------|--------------------------|
|--------------9----------|--------------9-----------|
|----10----10----10----10-|----10----10----10----10--|
|-14----14----------14----|-14----14----------14-----|
|-------------------------|--------------------------|


  (C/B)
   E  E  E  E  E  E  E  E    E  E  E  E  E  E  E  E
|-------------------------|-------------------------|
|-12-10-10-10-10-10-10-10-|-10-10-10-10-10-10-10-10-|
|-------------------------|-------------------------|
|-------------------------|-------------------------|
|-------------------------|-------------------------|
|-------------------------|-------------------------|
|
|  E  E  E  E  E  E  E  E    E  E  E  E  E  E  E  E
|-------------------------|-------------------------|
|-------------------------|-------------------------|
|--------------9----------|--------------9----------|
|----10----10----10----10-|----10----10----10----10-|
|-14----14----------14----|-14----14----------14----|
|-------------------------|-------------------------|


  1.
  (Fmaj7/E)
   E  E  E  E  E  E  E  E    E  E  E  E  E  E  E  E
|-------------12----------|-------------12-----------||
|-------10-------10----10-|-10----10-------10----10-o||
|----10----10-------10----|----10----10-------10-----||
|-14----------------------|--------------------------||
|-------------------------|-------------------------o||
|-------------------------|--------------------------||
|
|  E  E  E  E  E  E  E  E    E  E  E  E  E  E  E  E
|-------------12----------|-------------12-----------||
|-------10-------10----10-|-10----10-------10----10-o||
|----10----10-------10----|----10----10-------10-----||
|-14----------------------|--------------------------||
|-------------------------|-------------------------o||
|-------------------------|--------------------------||


  2.
  (Fmaj7/E)
  Gtrs IV, V
   E  E  E  E  E  E  E  E    E  E  E  E  E  E  E  E
|-------------12----------|-------------12----------|
|-------10-------10----10-|-------10-------10----10-|
|----10----10-------10----|----10----10-------10----|
|-14----------------------|-14----------------------|
|-------------------------|-------------------------|
|-------------------------|-------------------------|


                                        A5
   E  E  E  E  E  E  E  E    E  E  E  E   Q.   E
|-------------12----------|-------------^12------||
|-------10-------10----10-|-------10----^10------||
|----10----10-------10----|----10----10----------||
|-14----------------------|-14-------------------||
|-------------------------|----------------------||
|-------------------------|----------------------||


   Part V
    A5                  C5      G5
   4/4
    Gtrs I, II
    E E E E E E E E   E E E E E E E E
||------------------|-----------------|
||o-----------------|-----------------|
||--2-2-2-2-2-2-2-2-|-2-5-5-5-x-------|
||--2-2-2-2-2-2-2-2-|-2-5-5-5-x-5-5-5-|
||o-0-0-0-0-0-0-0-0-|-0-3-3-3-x-5-5-5-|
||------------------|-----------3-3-3-|


    E5                              F5
    PM---------------------------|
  E S E S q  S S S S E   E S E S q  E E E
|----------------------|------------------|
|----------------------|------------------|
|----------------------|------------------|
|----------------------|------------3-3-3-|
|---2-2---2--2-2-2-2-2-|---2-2---2--3-3-3-|
|---0-0---0--0-0-0-0-0-|---0-0---0--1-1-1-|


  A5                  C5      G5
  E E E E E E E E   E E E E E E E E
|-----------------|-----------------|
|-----------------|-----------------|
|-2-2-2-2-2-2-2-2-|-2-5-5-5-x-------|
|-2-2-2-2-2-2-2-2-|-2-5-5-5-x-5-5-5-|
|-0-0-0-0-0-0-0-0-|-0-3-3-3-x-5-5-5-|
|-----------------|-----------3-3-3-|


  N.C.
  S S S S S S S S S S S S S S E   S S S S S S S S S S S S S S E
|-------------------------------|---------------------------------||
|-------------------------------|--------------------------------o||
|-------------------------------|---------------------------------||
|-----------------5p0-----------|-----------------5p0-------------||
|-----3p0-2p0-3p0-----3p0-2p0---|-----3p0-2p0-3p0-----3p0-2p0----o||
|-1p0-------------------------0-|-1p0-------------------------0---||


  N.C.
  S S S S S S S S S S S S S S E   S S S S S S S S S S S S S S E
|-------------------------------|-------------------------------||
|-------------------------------|-------------------------------||
|-------------------------------|-------------------------------||
|-----------------5p0-----------|-----------------5p0-----------||
|-----3p0-2p0-3p0-----3p0-2p0---|-----3p0-2p0-3p0-----3p0-2p0---||
|-1p0-------------------------0-|-1p0-------------------------0-||


 Outro
  N.C.
  Gtr III
   E    E    E    E    E    E    E    E    E    E    E    E    E    E    E    E
|----------------17-------------17------|----------------17-------------17------|
|------13------------------13--------13-|------13------------------13--------13-|
|-16--------16--------16----------------|-16--------16--------16----------------|
|---------------------------------------|---------------------------------------|
|---------------------------------------|---------------------------------------|
|---------------------------------------|---------------------------------------|
|
| Gtrs I, II
|  S S  S S  S S  S S  S S  S S  S S  E    S S  S S  S S  S S  S S  S S  S S  E
|---------------------------------------|---------------------------------------|
|---------------------------------------|---------------------------------------|
|---------------------------------------|---------------------------------------|
|----------------------5p0--------------|----------------------5p0--------------|
|-------3p0--2p0--3p0-------3p0--2p0----|-------3p0--2p0--3p0-------3p0--2p0----|
|--1p0--------------------------------0-|--1p0--------------------------------0-|


   E    E    E    E    E    E    E    E    E    E    E    E    E    E    E    E   W
|----------------17-------------17------|----------------17-------------17------|------*|
|------13------------------13--------13-|------13------------------13--------13-|------*|
|-16--------16--------16----------------|-16--------16--------16----------------|------*|
|---------------------------------------|---------------------------------------|------*|
|---------------------------------------|---------------------------------------|------*|
|---------------------------------------|---------------------------------------|------*|
|
|  S S  S S  S S  S S  S S  S S  S S  E    S S  S S  S S  S S  S S  S S  S S  E   W
|---------------------------------------|---------------------------------------|------*|
|---------------------------------------|---------------------------------------|------*|
|---------------------------------------|---------------------------------------|------*|
|----------------------5p0--------------|----------------------5p0--------------|------*|
|-------3p0--2p0--3p0-------3p0--2p0----|-------3p0--2p0--3p0-------3p0--2p0----|------*|
|--1p0--------------------------------0-|--1p0--------------------------------0-|------*|





Comments


Popular Bled tabs & chords
Red Wedding Bass Tabs
Smoke Breaks Bass Tabs
You Know Who's Seatbelt Bass Tabs
Asleep On The Frontlines Intro Tabs
His First Crush Tabs
Hotel Coral Essex Tabs
I Never Met Another Gemini 2 Tabs
Last American Cowboy Intro Tabs
My Assassin Tabs
Smoke Breaks Tabs


Song lyrics



↑ Back to top | Tablatures and chords are parodies/interpretations of the original songs. You may use it for private study, scholarship, research or language learning purposes only
© 2014 AZChords.com Contact us | Privacy policy | DMCA | Add/correct tabs | Request tabs | Top 50 tabs