» » »

I Never Met Another Gemini Tabs (ver.4)

Artists:  A B C D E F G H I J K L M N O P Q R S T U V W X Y Z # 

I Never Met Another Gemini Tabs (ver.4)

Bled
Rating:
0/5 (0 votes)

Hard to play? Try these video lessons and learn fast.
                I Never Met Another Gemini
The Bled
Pass The Flask

Intro
D|------------------------------------|
A|-----19-20-----19-20-----19---------|
F|-17---------17---------17-----------|
C|------------------------------------|
G|------------------------------------|
D|------------------------------------|

D|-----------------------------------|
A|-----19-20----19-20-----19---------|
F|-16---------16---------16----------|
C|-----------------------------------|
G|-----------------------------------|
D|-----------------------------------|

D|------------------------------------|
A|-----19-20-----19-20-----19---------|
F|-17---------17---------17-----------|
C|------------------------------------|
G|------------------------------------|
D|------------------------------------|

D|-----------------------|
A|------19-20----19------|
F|--19---------19--------|
C|-----------------------|
G|-----------------------|
D|-----------------------|

Verse
D|-----------------|
A|-----------------|
F|-5--9--4--7------|
C|-5--9--4--7------|
G|-3--7--2--5------|
D|-----------------|

Pull off Part
D|12-0--10-0--8-0--7-0--8-0--7-0--5--7--------------|
A|--------------------------------------------------|
F|--------------------------------------------------|
C|--------------------------------------------------|
G|--------------------------------------------------|
D|--------------------------------------------------|

D|12-0--10-0--8-0--7-0--8-0--7-0-5-0-7-0--------------|
A|----------------------------------------------------|
F|----------------------------------------------------|
C|----------------------------------------------------|
G|----------------------------------------------------|
D|----------------------------------------------------|

D|12-0--10-0--8-0--7-0--8-0--7-0--5--7--------------|
A|--------------------------------------------------|
F|--------------------------------------------------|
C|--------------------------------------------------|
G|--------------------------------------------------|
D|--------------------------------------------------|

D|----7-8-----7-8------|
A|-5--------5----------|
F|---------------------|
C|---------------------|
G|---------------------|
D|---------------------|


Breakdown:

d-------------------------------------------|
A-------------------------------------------|
F-------------------------------------------|
C--3333333----------------------------------|
G--3333333----------------------------------|
D--1111111----------------------------------|
xxxxxxxx

d-------------------------------------------|
A---------000------0000---------------------|
F---------444------4444---------------------|
C--222--------22---------3333---------------|
G--222--------22---------3333---------------|
D--000--------00---------1111---------------| Repeat 2 more times, then:
xxx xx

d--------------------------------|
A--------------------------------|
F--------------------------------|
C---555555555555-----------------|
G---555555555555-----------------|
D---333333333333-----------------|
xxxxxxxxxxxxxx

d-------------------------------------------|
A------------000-------0000-----------------|
F------------444-------4444-----------------|
C--7777----------77-----------3333----------|
G--7777----------77-----------3333----------|
D--5555----------55-----------1111----------|

I can't figure out much else, as of yet.

I'll come back to this.
            
Hard to play? Try these video lessons and learn fast. | Correct




comments powered by Disqus
↑ Back to top | Tablatures and chords are parodies/interpretations of the original songs. You may use it for private study, scholarship, research or language learning purposes only