» » »

House Of Suffering Tabs (ver.1)

Artists:  A B C D E F G H I J K L M N O P Q R S T U V W X Y Z # 

House Of Suffering Tabs (ver.1)

Bled
Rating:
4/5 (1 vote)

Hard to play? Try these video lessons and learn fast.
                House of Suffering - I know this song isn't by the bled,but they do the cover version of 
in tony hawk's american wasteland.I know most of the songs off the soundtrack album 
this one since nobody tabbed it.
Well I gave it a shot and did what I could...Enjoy!

p.s I know there are bits and bobs wrong in this,if you find something,please let me know
Intro
e---------5--8------------5--8-----------5--8----------------|
B---------5--8------------5--8-----------5--8----------------|
G-----10--6--9---9----10--6--9---9----10-6--9---9------------|
D-----10--7--10--9----10--7--10--9----10-7--10--9------------|
A-----8---7--10--7----8---7--10--7----8--7--10--7------------|
E---------5--8------------5--8-----------5--8----------------|

bridge
e-------------------------------------------------------------|
B-------------------------------------------------------------|
G-----12--11--------------6-----------------------------------|
D-----12--11--12--11---4446-----------------------------------|
A-----10--9---12--11---4444-----------------------------------|
E-------------10--9----222------------------------------------|

Riff 1 - (listen for rhythm)
e-----2---3---5---7--------2---3---5-----7--------------------|
B-----2---3---5---7--------2---3---5-----7--------------------|
G-----3---4---6---8--------3---4---6--7--8--------------------|
D-----4---5---7---9--------4---5---7--7--9--------------------|
A-----4---5---7---9--------4---5---7--5--9--------------------|
E-----2---3---5---7--------2---3---5-----7--------------------|

Riff 2
e---------------------7---------------------------------------|
B---------------------7---------------------------------------|
G-----6------6----7---8---------------------------------------|
D-----6------6----7---9---------------------------------------|
A-----4------4----5---9---------------------------------------|
E---------------------7---------------------------------------|

Riff 3
e-----7---5---3---2-------------------------------------------|
B-----7---5---3---2-------------------------------------------|
G-----8---6---4---3-------------------------------------------|
D-----9---7---5---4-------------------------------------------|
A-----9---7---5---4-------------------------------------------|
E-----7---5---3---2-------------------------------------------|

Solo
e----------------------------------------------4-7p6p4--------|
B--------------------------4-----------4-6b~-----------7p6p4--|
G----6b^-6-4-------------6---6-4---4-6------------------------|
D------------6-4-----------------6----------------------------|
A----------------6-4-2----------------------------------------|
E-------------------------------------------------------------|

e----------------------------------------7--------------------|
B----------------------------------------7--------------------|
G----6p4---6-6-6-6------6-------6----7---8--------------------|
D--------6---------6----6-------6----7---9--------------------|
A-----------------------4-------4----5---9--------------------|
E----------------------------------------7--------------------|


<-------------------------------- Song Structure ----------------------->
-Intro-
-Riff 1-
In this house of suffering
I gotta let some light in yeah
I hear that freedom will win
----------------------------------------------------------------------------
-bridge-
-Riff 2-

Oh where oh where can jah love be found
My dear, it's here in the underground
Inside the hearts of your own children
----------------------------------------------------------------------------
-bridge-
-Riff 1-

In this house of suffering
I spiritualogic grin,
inOne way grace is my friend
To conquer doom and sin oh yeah
----------------------------------------------------------------------------
-Riff 3-
-Riff 1-

And all the people lying
And all our people crying
And they stop at nothing!...nothing!...nothing!
----------------------------------------------------------------------------
-Solo-
-Bridge-
-Riff 1-

In this house of suffering
Don't want but just one thing,
say nah nah nah nah
Got to have my origin
In this house of suffering
----------------------------------------------------------------------------
-Bridge-
-Intro-
-Bridge-
            
Hard to play? Try these video lessons and learn fast. | Correct




comments powered by Disqus
↑ Back to top | Tablatures and chords are parodies/interpretations of the original songs. You may use it for private study, scholarship, research or language learning purposes only