>
 >
Dale Earnharts Seatbelt

Dale Earnharts Seatbelt Guitar Tabs

Bled - Dale Earnharts Seatbelt chords, tabs, tablatures, lyrics

Guitar lessons | Add/correct | Request | Top 50 tabs Artists:  A B C D E F G H I J K L M N O P Q R S T U V W X Y Z 0-9

Dale Earnharts Seatbelt Guitar Tabs – Bled

CD, Sheet music, Poster

Do you like Dale Earnharts Seatbelt? Share with your friends now
Tabs
The Bled---Dale Earnhardt's Seatbelt
Pass The Flask #2
*-palm mute
~-ring out
()-harmonic
p-pull
h-hammer
intro 1 1x
d--------------------------------000000 0 0000000----------------|
A8877881010887788(or ross's way)-8877881010887788----------------|
F999999 9 9999999------------------------------------------------|
C----------------------------------------------------------------|
G----------------------------------------------------------------|
D----------------------------------------------------------------|
intro 2 guitar 1
d--------------------------------------------------------------------------|
A-----------------887788101088778888----------------8877881010121210108877-|
F-----------------999999 9 999999999----------------999999 9 9 9 9 9 99999-|
C2222222222222222-------------------2222222222222222-----------------------|
G2222222222222222-------------------2222222222222222-----------------------|
D0000000000000000-------------------0000000000000000-----------------------|
then...(still guitar 1)
d---------17~---15~---14~----------------------------------------|
A8~7~------------------------------------------------------------|
F9~9~------------------------------------------------------------|
C----------------------------------------------------------------|
G----------------------------------------------------------------|
D----------------------------------------------------------------|

intro 2 guitar2 2X
d13131313131313131313131313131313--------------------------------|
A17171717171717171717171717171717--------------------------------|
F----------------------------------11--11--12--11-11/12----------|
C--------------------------------99--99--99--99--9---------------|
G----------------------------------------------------------------|
D----------------------------------------------------------------|
                                 **  **  **  **  *
then (still guitar 2)
d----------------------------------------------------------------|
A----------------------------------------------------------------|
F----------------44444444444444440000000000000000----------------|
C222222222222222244444444444444444444444444444444----------------|
G222222222222222222222222222222223333333333333333----------------|
D0000000000000000------------------------------------------------|
guitar 1 plays intro 1 5x
thing guitar 2 2x (2nd time dont play 3's on G)
d-----------------------------------------------------------------|
A----------play 2x then-------------------------------------------|
F--9---------------55555555555555--play only the 2nd time---------|
C---109------------55555555555555--555555555555555777777777777777-|
G------109---------33333333333333--555555555555555777777777777777-|
D00-------10-----------------------333333333333333555555555555555-|
 **
pickslide into breakdown both guitars (one guitar only hits 0)
d----------------------------------------------------------------|
A----------------------------------------------------------------|
F-----000--00--00----0--00---0-0(5)-harmonic 2nd time only-------|
C2222244422442244222242244222424(4)-play 2x-then...--------------|
G22222---22--22--2222-22--222-2----------------------------------|
D00000---00--00--0000-00--000-0----------------------------------|
 *****   **  **  **** **  *** *
heavy breakdown both guitars
d----------------------------------------------------------------|
A----------------------------------------------------------------|
F-------000---00--00--0--0---0--0-0---------then...--------------|
C2222222444222442244224224222422424-play 2x-2222222--------------|
G2222222---222--22--22-22-222-22-2----------2222222--------------|
D0000000---000--00--00-00-000-00-0----------0000000--------------|
 *******   ***  **  ** ** *** ** *          *******
everything rings out then guitar 1 plays this 17x (1 time alone)
d----------------------------------------------------------------|
A8877881010------------------------------------------------------|
F999999 9 9------------------------------------------------------|
C----------------------------------------------------------------|
G----------------------------------------------------------------|
D----------------------------------------------------------------|
guitar 2 plays this 2x (after guitar plays riff above 1 time)
d----------------------------------------------------------------|
A----------------------------------------------------------------|
F999---99999-9-777---77777-7-555---55555-5-4444444---------------|
C999---99999-9-777---77777-7-555---55555-5-444444400~~~----------|
G777---77777-7-555---55555-5-333---33333-3-222222255~~~----------|
D----------------------------------------------------------------|
then...guitar 1 12x
d----------------------------------------------------------------|
A0h8p0h7p05p4p0--------------------------------------------------|
F----------------------------------------------------------------|
C----------------------------------------------------------------|
G----------------------------------------------------------------|
D----------------------------------------------------------------|
then...guitar 2 plays
d----------------------------------------------------------------|
A----------------------------------------------------------------|
F5555555555555555000000000000000055555555555555557777777777777777
C5555555555555555444444444444444455555555555555557777777777777777
G3333333333333333333333333333333333333333333333335555555555555555
D----------------------------------------------------------------
then...guitar 3??? 12x
d0h15p0h17p15p0h15-----------------------------------------------|
A----------------------------------------------------------------|
F----------------------------------------------------------------|
C----------------------------------------------------------------|
G----------------------------------------------------------------|
D----------------------------------------------------------------|
pickslide into complete breakdown again
after breakdown everything stops but guitar 1...3x
d----------------------------------------------------------------|
A131313131313131313131313131313131313----------------------------|
F161616161616161616161616161616161616----------------------------|
C----------------------------------------------------------------|
G----------------------------------------------------------------|
D----------------------------------------------------------------|
guitar 2 comes in with this 3x (harmonic part 1st time only)
d------------------------------(replace harmonic part with the---|
A-------------------------------first part after 1 time)---------|
F------------------------------------(5)-------------------------|
C22-222-222-2----10------22-222-222-2(5)-------------------------|
G22-222-222-2------109---22-222-222-2(5)-------------------------|
D00-000-000-00078-----10-00-000-000-0----------------------------|
 ** *** *** ***          ** *** *** *
guitar 1 changes to this 8x
d0h15p0h17p15p0h15-----------------------------------------------|
A----------------------------------------------------------------|
F----------------------------------------------------------------|
C----------------------------------------------------------------|
G----------------------------------------------------------------|
D----------------------------------------------------------------|
then both guitars do
d----------------------------------------------------------------|
A----------------------------------------------------------------|
F----------------------------------------------------------------|
C22-222-22-2222-222-22-22-222-22-2222-222-22-22~~~---------------|
G22-222-22-2222-222-22-22-222-22-2222-222-22-22~~~---------------|
D00-000-00-0000-000-00-00-000-00-0000-000-00-00~~~---------------|





Comments


Popular Bled tabs & chords
I Never Met Another Gemini Bass Tabs
Ruth Buzzi Better Watch Her Back 1 Bass Tabs
We Are The Industry Bass Tabs
You Know Who's Seatbelt Bass Tabs
Antarctica Tabs
Hotel Coral Essex Tabs
House Of Suffering Tabs
I Never Met Another Gemini Tabs
Last American Cowboy Intro 1 Tabs
Nothing We Say Leaves This Room Tune From The Site Tabs


Song lyrics



↑ Back to top | Tablatures and chords are parodies/interpretations of the original songs. You may use it for private study, scholarship, research or language learning purposes only
© 2014 AZChords.com Contact us | Privacy policy | DMCA | Add/correct tabs | Request tabs | Top 50 tabs