>
 >
Asleep On The Frontlines Intro

Asleep On The Frontlines Intro Guitar Tabs

Bled - Asleep On The Frontlines Intro chords, tabs, tablatures, lyrics

Guitar lessons | Add/correct | Request | Top 50 tabs Artists:  A B C D E F G H I J K L M N O P Q R S T U V W X Y Z 0-9

Asleep On The Frontlines Intro Guitar Tabs – Bled

CD, Sheet music, Poster

Do you like Asleep On The Frontlines Intro? Share with your friends now
Tabs
The Bled - Asleep On The Frontlines


--------------------guitar right--------------------

     E   E   E   E    E   E   E   E   
D||-------------13s--12--------------|
A||-----11---------------11------11--|
F||---------10---------------10------|
C||--0-------------------------------|
G||----------------------------------|
C||----------------------------------|


     E    E   E   E   E   E   E   E   
-----------------17----------18------|
---------15----------15----------15--|
--/(14)---L--14----------14----------|
-------------------------------------|
-------------------------------------|
-------------------------------------|


  E    E    E   E   E    E   E   E   
-------------------13s--12----------|
-----(13)-------------------11------|
------12s--10--10---------------10--|
--0---------------------------------|
------------------------------------|
------------------------------------|


  E  E   E  E  E    E  E  E   
-----------------------------|
------------5--6s--10--8-----|
-----5s--7----------------9--|
--0--------------------------|
-----------------------------|
-----------------------------|


  E   E   E   E    E   E   E   E   
-------------13s--12--------------|
-----11---------------11------11--|
---------10---------------10------|
--0-------------------------------|
----------------------------------|
----------------------------------|


     E    E   E   E   E   E   E   E   
-----------------17----------18------|
---------15----------15----------15--|
--/(14)------14----------14----------|
-------------------------------------|
-------------------------------------|
-------------------------------------|


  E    E    E   E   E    E   E   E   
-------------------13s--12----------|
-----(13)-------------------11------|
------12s--10--10---------------10--|
--0---------------------------------|
------------------------------------|
------------------------------------|


  E  E   E  E  E    E  E  E   
-----------------------------|
------------5--6s--10--8-----|
-----5s--7----------------9--|
--0--------------------------|
-----------------------------|
-----------------------------|


  E   E   E   E    E   E   E   E   
-------------13s--12--------------|
-----11---------------11------11--|
---------10---------------10------|
--0-------------------------------|
----------------------------------|
----------------------------------|


     E    E   E   E   E   E   E   E   
-----------------17----------18------|
---------15----------15----------15--|
--/(14)---L--14----------14----------|
-------------------------------------|
-------------------------------------|
-------------------------------------|


  E    E    E   E   E    E   E   E   
-------------------13s--12----------|
-----(13)-------------------11------|
------12s--10--10---------------10--|
--0---------------------------------|
------------------------------------|
------------------------------------|


  E  E   E  E  E    E  E  E   
-----------------------------|
------------5--6s--10--8-----|
-----5s--7----------------9--|
--0--------------------------|
-----------------------------|
-----------------------------|


  E  E  E   E  E  E   E  E   
-------------------------5--|
---------------5--6s--8-----|
-----2--4s--5---------------|
----------------------------|
--0-------------------------|
----------------------------|


  E  E  E   E  E  E   E  E   
-------------------------5--|
---------------5--6s--8-----|
-----2--4s--5---------------|
----------------------------|
--0-------------------------|
----------------------------|


  E  E  E  E  E    E  E   E   
-----------------------------|
-----------5--6s--10--8s--5--|
-----5--7--------------------|
--0--------------------------|
-----------------------------|
-----------------------------|


  E  E  E  E  E    E  Q     
---------------------------|
-----------5--6s--10--8----|
-----5--7------------------|
--0------------------------|
---------------------------|
---------------------------|


  E  E  E   E  E  E   E  E   
-------------------------5--|
---------------5--6s--8-----|
-----2--4s--5---------------|
----------------------------|
--0-------------------------|
----------------------------|


  E  E  E   E  E  E  E  E   
---------------------------|
---------------5--6--8--6--|
-----2--4s--5--------------|
---------------------------|
--0------------------------|
---------------------------|


  W                 
-------------------|
--5----------------|
-------------------|
-------------------|
-------------------|
-------------------|


  E   E   E   E    E   E   E   E   
-------------13s--12--------------|
-----11---------------11------11--|
---------10---------------10------|
--0-------------------------------|
----------------------------------|
----------------------------------|


     E    E   E   E   E   E   E   E   
-----------------17----------18------|
---------15----------15----------15--|
--/(14)---L--14----------14----------|
-------------------------------------|
-------------------------------------|
-------------------------------------|


  E    E    E   E   E    E   E   E   
-------------------13s--12----------|
-----(13)-------------------11------|
------12s--10--10---------------10--|
--0---------------------------------|
------------------------------------|
------------------------------------|


  E  E   E  E  E    E  E  E   
-----------------------------|
------------5--6s--10--8-----|
-----5s--7----------------9--|
--0--------------------------|
-----------------------------|
-----------------------------|


  E   E   E   E    E   E   E   E   
-------------13s--12--------------|
-----11---------------11------11--|
---------10---------------10------|
--0-------------------------------|
----------------------------------|
----------------------------------|


     E    E   E   E   E   E   E   E   
-----------------17----------18------|
---------15----------15----------15--|
--/(14)---L--14----------14----------|
-------------------------------------|
-------------------------------------|
-------------------------------------|


  E    E    E   E   E    E   E   E   
-------------------13s--12----------|
-----(13)-------------------11------|
------12s--10--10---------------10--|
--0---------------------------------|
------------------------------------|
------------------------------------|


  E  E   E  E  E    E  E  E   
-----------------------------|
------------5--6s--10--8-----|
-----5s--7----------------9--|
--0--------------------------|
-----------------------------|
-----------------------------|


  E   E   E   E    E   E   E   E   
-------------13s--12--------------|
-----11---------------11------11--|
---------10---------------10------|
--0-------------------------------|
----------------------------------|
----------------------------------|


     E    E   E   E   E   E   E   E   
-----------------17----------18------|
---------15----------15----------15--|
--/(14)---L--14----------14----------|
-------------------------------------|
-------------------------------------|
-------------------------------------|


  E    E    E   E   E    E   E   E   
-------------------13s--12----------|
-----(13)-------------------11------|
------12s--10--10---------------10--|
--0---------------------------------|
------------------------------------|
------------------------------------|


  E  E   E  E  E    E  E  E   
-----------------------------|
------------5--6s--10--8-----|
-----5s--7----------------9--|
--0--------------------------|
-----------------------------|
-----------------------------|


  E   E   E   E    E   E   E   E   
-------------13s--12--------------|
-----11---------------11------11--|
---------10---------------10------|
--0-------------------------------|
----------------------------------|
----------------------------------|


     E    E   E   E   E   E   E   E   
-----------------17----------18------|
---------15----------15----------15--|
--/(14)---L--14----------14----------|
-------------------------------------|
-------------------------------------|
-------------------------------------|


  E    E    E   E   E    E   E   E   
-------------------13s--12----------|
-----(13)-------------------11------|
------12s--10--10---------------10--|
--0---------------------------------|
------------------------------------|
------------------------------------|


  E  E   E  E  E    E  E  E   
-----------------------------|
------------5--6s--10--8-----|
-----5s--7----------------9--|
--0--------------------------|
-----------------------------|
-----------------------------|


  E  E   E  E  E    E  E  E   
-----------------------------|
------------5--6s--10--8-----|
-----5s--7----------------9--|
--0--------------------------|
-----------------------------|
-----------------------------|


  E  E  E  E  E    E  Q     
---------------------------|
-----------5--6s--10--8----|
-----5--7------------------|
--0------------------------|
---------------------------|
---------------------------|


  E  E   E  E  E    E  E  E   
-----------------------------|
------------5--6s--10--8-----|
-----5s--7----------------9--|
--0--------------------------|
-----------------------------|
-----------------------------|


  E  E   E  E  E   E  Q     
---------------------------|
---------------------------|
-----5h--7-----5h--7-------|
--0---------0--------------|
---------------------------|
---------------------------|

1:20

  E   E  E   E  E   E  E   E   
------------------------------|
-----10-----10-----10-----10--|
--7------7------7------7------|
------------------------------|
------------------------------|
------------------------------|


  E   E  E   E  E   E  E   E   
------------------------------|
-----10-----10-----10-----10--|
--7------7------7------7------|
------------------------------|
------------------------------|
------------------------------|


  E   E  E   E  E   E  E   E   
------------------------------|
-----10-----10-----10-----10--|
--7------7------7------7------|
------------------------------|
------------------------------|
------------------------------|


  E   E  E   E  E   E  E   E   
------------------------------|
-----10-----10-----10-----10--|
--7------7------7------7------|
------------------------------|
------------------------------|
------------------------------|


  E   E  E  E  E   E  E   E   
------------8----------------|
-----10-----------10-----10--|
--7------7-----7------7------|
-----------------------------|
-----------------------------|
-----------------------------|


  E   E  E  E  E   E  E   E   
------------8----------------|
-----10-----------10-----10--|
--7------7-----7------7------|
-----------------------------|
-----------------------------|
-----------------------------|


  E   E  E  E  E   E  E   E   
------------8----------------|
-----10-----------10-----10--|
--7------7-----7------7------|
-----------------------------|
-----------------------------|
-----------------------------|


  E   E  E  E  E   E  E   E   
------------8----------------|
-----10-----------10-----10--|
--7------7-----7------7------|
-----------------------------|
-----------------------------|
-----------------------------|


  E   E  E   E  E   E  E   E   
------------------------------|
-----10-----10-----10-----10--|
--7------7------7------7------|
------------------------------|
------------------------------|
------------------------------|


  E   E  E   E  E   E  E   E   
------------------------------|
-----10-----10-----10-----10--|
--7------7------7------7------|
------------------------------|
------------------------------|
------------------------------|


  E   E  E   E  E   E  E   E   
------------------------------|
-----10-----10-----10-----10--|
--7------7------7------7------|
------------------------------|
------------------------------|
------------------------------|


  E   E  E   E  E   E  E   E   
------------------------------|
-----10-----10-----10-----10--|
--7------7------7------7------|
------------------------------|
------------------------------|
------------------------------|


  E   E  E  E  E   E  E   E   
------------8----------------|
-----10-----------10-----10--|
--7------7-----7------7------|
-----------------------------|
-----------------------------|
-----------------------------|


  E   E  E  E  E   E  E   E   
------------8----------------|
-----10-----------10-----10--|
--7------7-----7------7------|
-----------------------------|
-----------------------------|
-----------------------------|


  E   E  E  E  E   E  E   E   
------------8----------------|
-----10-----------10-----10--|
--7------7-----7------7------|
-----------------------------|
-----------------------------|
-----------------------------|


  E   E  E  E  E   E  E   E     H         
------------8----------------|-----------|
-----10-----------10-----10--|-----------|
--7------7-----7------7------|-----------|
-----------------------------|-----------|
-----------------------------|-----------|
-----------------------------|-----------|


-----------------guitar left--------------------


1:20

  PM PM PM PM PM  PM PM PM  
  E  E  E  E  E   E  E  E   
---------------------------|
-----------5--6--10--8--5--|
-----5--7------------------|
--0------------------------|
---------------------------|
---------------------------|


  PM PM PM PM PM  PM PM PM  
  E  E  E  E  E   E  E  E   
---------------------------|
-----------5--6--10--8--5--|
-----5--7------------------|
--0------------------------|
---------------------------|
---------------------------|


  PM PM PM PM PM  PM PM PM  
  E  E  E  E  E   E  E  E   
---------------------------|
-----------5--6--10--8--5--|
-----5--7------------------|
--0------------------------|
---------------------------|
---------------------------|


  PM PM PM PM PM  PM PM PM  
  E  E  E  E  E   E  E  E   
---------------------------|
-----------5--6--10--8--5--|
-----5--7------------------|
--0------------------------|
---------------------------|
---------------------------|


  PM PM PM PM PM  PM PM PM  
  E  E  E  E  E   E  E  E   
---------------------------|
-----------5--6--10--8--5--|
-----5--7------------------|
--0------------------------|
---------------------------|
---------------------------|


  PM PM PM PM PM  PM PM PM  
  E  E  E  E  E   E  E  E   
---------------------------|
-----------5--6--10--8--5--|
-----5--7------------------|
--0------------------------|
---------------------------|
---------------------------|


  PM PM PM PM PM  PM PM PM  
  E  E  E  E  E   E  E  E   
---------------------------|
-----------5--6--10--8--5--|
-----5--7------------------|
--0------------------------|
---------------------------|
---------------------------|


  PM PM PM PM PM  PM PM PM  
  E  E  E  E  E   E  E  E   
---------------------------|
-----------5--6--10--8--5--|
-----5--7------------------|
--0------------------------|
---------------------------|
---------------------------|


  PM PM PM PM PM  PM PM PM  
  E  E  E  E  E   E  E  E   
---------------------------|
-----------5--6--10--8--5--|
-----5--7------------------|
--0------------------------|
---------------------------|
---------------------------|


  PM PM PM PM PM  PM PM PM  
  E  E  E  E  E   E  E  E   
---------------------------|
-----------5--6--10--8--5--|
-----5--7------------------|
--0------------------------|
---------------------------|
---------------------------|


  PM PM PM PM PM  PM PM PM  
  E  E  E  E  E   E  E  E   
---------------------------|
-----------5--6--10--8--5--|
-----5--7------------------|
--0------------------------|
---------------------------|
---------------------------|


  E  E   E  E  E   E  Q                 
---------------------------|-----|-----|
---------------------------|-----|-----|
-----5h--7-----5h--7-------|-----|-----|
--0---------0--------------|-----|-----|
---------------------------|-----|-----|
---------------------------|-----|-----|


1:49



        Q    Q     E   E   Q      
-----|----------------15---Lb----|
-----|------------15-------------|
-----|---------------------------|
-----|---------------------------|
-----|---------------------------|
-----|---------------------------|


   H.            E   E   
--------------------12--|
--13-------------L------|
------------------------|
------------------------|
------------------------|
------------------------|


   W                 
---L----------------|
--------------------|
--------------------|
--------------------|
--------------------|
--------------------|


   E    E   Q     E    E    E   E   
-----------------------------------|
-----------------10h--13p--10------|
--14s--12--12------------------12--|
-----------------------------------|
-----------------------------------|
-----------------------------------|


   E  Q     Q    E  Q     
-------------------------|
-------------------------|
---L--9----10----9--7----|
-------------------------|
-------------------------|
-------------------------|


   Q.       H         E   
--12b------10--------12--|
-------------------------|
-------------------------|
-------------------------|
-------------------------|
-------------------------|


   W                 
---L----------------|
--------------------|
--------------------|
--------------------|
--------------------|
--------------------|


   H.             Q      
--15b------------15b----|
------------------------|
------------------------|
------------------------|
------------------------|
------------------------|


   H         Q     Q      
--15---------L-----L\----|
-------------------------|
-------------------------|
-------------------------|
-------------------------|
-------------------------|


  PM PM PM PM PM  PM PM PM  
  E  E  E  E  E   E  E  E   
---------------------------|
-----------5--6--10--8--5--|
-----5--7------------------|
--0------------------------|
---------------------------|
---------------------------|


  PM PM PM PM PM  PM PM PM                  
  E  E  E  E  E   E  E  E                   
---------------------------|
-----------5--6--10--8--5--|
-----5--7------------------|
--0------------------------|
---------------------------|
---------------------------|


  PM PM PM PM PM  PM PM                   
  E  E  E  E  E   E  E  E     W             
---------------------------|------|
-----------5--6--10--8--5--|--L---|
-----5--7------------------|------|
--0------------------------|------|
---------------------------|------|
---------------------------|------|





Duration Legend
---------------
W - whole
H - half
Q - quarter
E - 8th
S - 16th
T - 32nd
X - 64th
. - note dotted
|-n-|  - n-tuplets


Tablature Legend
----------------
L - tied note
x - dead note
g - grace note
(n) - ghost note
> - accentuded note
NH - natural harmonic
AH - artificial harmonic
TH - tapped harmonic
SH - semi harmonic
PH - pitch harmonic
h - hammer on
p - pull off
b - bend
br - bendRelease
pb - preBend
pbr - preBendRelease
brb - bendReleaseBend
\n/ - tremolo bar dip
\n - tremolo bar dive
-/n - tremolo bar Release up
/n\ - tremolo bar inverted dip
/n - tremolo bar return
-\n - tremolo bar Release down
S - shift slide
s - legato slide
/ -  slide into from below or out of upwards
\ -  slide into from above or out of downwards
~ - vibrato
W - wide vibrato
tr - trill
TP - tremolo picking
T - tapping
S - slap
P - pop
< - fade in
^ - brush up
v - brush down





Comments


Popular Bled tabs & chords
Ok But This Is How It Really Happened Bass Tabs
Sound Of Sulfur 1 Bass Tabs
Antarctica Intro Tabs
Daylight Bombings Tabs
His First Crush Tabs
Hotel Coral Essex Tabs
I Never Met Another Gemini (Intro) Tabs
Ok But This Is How It Really Happened Tabs
Smoke Breaks Tabs
You Know Who's Seatbelt Tabs


Song lyrics



↑ Back to top | Tablatures and chords are parodies/interpretations of the original songs. You may use it for private study, scholarship, research or language learning purposes only
© 2014 AZChords.com Contact us | Privacy policy | DMCA | Add/correct tabs | Request tabs | Top 50 tabs