>
 >
Anvil Pinata

Anvil Pinata Guitar Tabs

Bled - Anvil Pinata chords, tabs, tablatures, lyrics

Guitar lessons | Add/correct | Request | Top 50 tabs Artists:  A B C D E F G H I J K L M N O P Q R S T U V W X Y Z 0-9

Anvil Pinata Guitar Tabs – Bled

CD, Sheet music, Poster

Do you like Anvil Pinata? Share with your friends now
Tabs
ANVIL PINATA
                             As recorded by The Bled
                      (From the 2001 Album HIS FIRST CRUSH)

Words and Music by The Bled
Arranged by The Bled

Gtr I (E A D G B E) - 'Dist. Left'
Gtr II (E A D G B E) - 'Dist. Right'
Gtr III (E A D G B E) - 'Clean Left'
Gtr IV (E A D G B E) - 'Clean Right'
Gtr V (E A D G B E) - 'Solo Lead'
Gtr VI (E A D G) - 'Bass'

   Intro
    Dancefight Q=152
    N.C.
   2/2
    Gtr III
     S  S  S  S  S  S  S  S  S  S  S  S  S  S  S  S
||--------------------------------------------------|
||o-------------------------------------------------|
||---3--3--3--3--3--3--3--3--3--3--3--3--3--3--3--3-|
||---x--x--x--x--x--x--x--x--x--x--x--x--x--x--x--x-|
||o--1--1--1--1--1--1--1--1--1--1--1--1--1--1--1--1-|
||--------------------------------------------------|
|
|   Gtr IV
|    S  S  S  S  S  S  S  S  S  S  S  S  S  S  S  S
||--12-12-12-12-12-12-12-12-12-12-12-12-12-12-12-12-|
||o--x--x--x--x--x--x--x--x--x--x--x--x--x--x--x--x-|
||---9--9--9--9--9--9--9--9--9--9--9--9--9--9--9--9-|
||--------------------------------------------------|
||o-------------------------------------------------|
||--------------------------------------------------|


   S  S  S  S  S  S  S  S  S  S  S  S  S  S  S  S
|-------------------------------------------------|
|-------------------------------------------------|
|--3--3--3--3--3--3--3--3--3--3--3--3--3--3--3--3-|
|--x--x--x--x--x--x--x--x--x--x--x--x--x--x--x--x-|
|--1--1--1--1--1--1--1--1--1--1--1--1--1--1--1--1-|
|-------------------------------------------------|
|
|  S  S  S  S  S  S  S  S  S  S  S  S  S  S  S  S
|-12-12-12-12-12-12-12-12-12-12-12-12-12-12-12-12-|
|--x--x--x--x--x--x--x--x--x--x--x--x--x--x--x--x-|
|--9--9--9--9--9--9--9--9--9--9--9--9--9--9--9--9-|
|-------------------------------------------------|
|-------------------------------------------------|
|-------------------------------------------------|


   S  S  S  S  S  S  S  S  S  S  S  S  S  S  S  S
|-------------------------------------------------|
|-------------------------------------------------|
|--5--5--5--5--5--5--5--5--5--5--5--5--5--5--5--5-|
|--x--x--x--x--x--x--x--x--x--x--x--x--x--x--x--x-|
|--3--3--3--3--3--3--3--3--3--3--3--3--3--3--3--3-|
|-------------------------------------------------|
|
|  S  S  S  S  S  S  S  S  S  S  S  S  S  S  S  S
|-12-12-12-12-12-12-12-12-12-12-12-12-12-12-12-12-|
|--x--x--x--x--x--x--x--x--x--x--x--x--x--x--x--x-|
|--9--9--9--9--9--9--9--9--9--9--9--9--9--9--9--9-|
|-------------------------------------------------|
|-------------------------------------------------|
|-------------------------------------------------|


   S  S  S  S  S  S  S  S  S  S  S  S  S  S  S  S
|-------------------------------------------------|
|-------------------------------------------------|
|--5--5--5--5--5--5--5--5--5--5--5--5--5--5--5--5-|
|--x--x--x--x--x--x--x--x--x--x--x--x--x--x--x--x-|
|--3--3--3--3--3--3--3--3--3--3--3--3--3--3--3--3-|
|-------------------------------------------------|
|
|  S  S  S  S  S  S  S  S  S  S  S  S  S  S  S  S
|-12-12-12-12-12-12-12-12-12-12-12-12-12-12-12-12-|
|--x--x--x--x--x--x--x--x--x--x--x--x--x--x--x--x-|
|--9--9--9--9--9--9--9--9--9--9--9--9--9--9--9--9-|
|-------------------------------------------------|
|-------------------------------------------------|
|-------------------------------------------------|


  E5
   E     Q.                 E     Q.
|---------------------------------------------------|
|---------------------------------------------------|
|---------------------------------------------------|
|---------------------------------------------------|
|--2-----2------------------2-----2-----------------|
|--0-----0------------------0-----0-----------------|
|
|  S  S  S   S  S  S  S  S  S  S  S   S  S  S  S  S
|-12-12-12--12-12-12-12-12-12-12-12--12-12-12-12-12-|
|--x--x--x---x--x--x--x--x--x--x--x---x--x--x--x--x-|
|--9--9--9---9--9--9--9--9--9--9--9---9--9--9--9--9-|
|---------------------------------------------------|
|---------------------------------------------------|
|---------------------------------------------------|


   E     Q.                 E     Q.
|---------------------------------------------------|
|---------------------------------------------------|
|---------------------------------------------------|
|---------------------------------------------------|
|--2-----2------------------2-----2-----------------|
|--0-----0------------------0-----0-----------------|
|
|  S  S  S   S  S  S  S  S  S  S  S   S  S  S  S  S
|-12-12-12--12-12-12-12-12-12-12-12--12-12-12-12-12-|
|--x--x--x---x--x--x--x--x--x--x--x---x--x--x--x--x-|
|--9--9--9---9--9--9--9--9--9--9--9---9--9--9--9--9-|
|---------------------------------------------------|
|---------------------------------------------------|
|---------------------------------------------------|


  E5
   E     Q.                 E     Q.
|---------------------------------------------------|
|---------------------------------------------------|
|---------------------------------------------------|
|---------------------------------------------------|
|--2-----2------------------2-----2-----------------|
|--0-----0------------------0-----0-----------------|
|
|  S  S  S   S  S  S  S  S  S  S  S   S  S  S  S  S
|-12-12-12--12-12-12-12-12-12-12-12--12-12-12-12-12-|
|--x--x--x---x--x--x--x--x--x--x--x---x--x--x--x--x-|
|--9--9--9---9--9--9--9--9--9--9--9---9--9--9--9--9-|
|---------------------------------------------------|
|---------------------------------------------------|
|---------------------------------------------------|


   E     Q.                 E     Q.
|----------------------------------------------------||
|---------------------------------------------------o||
|----------------------------------------------------||
|----------------------------------------------------||
|--2-----2------------------2-----2-----------------o||
|--0-----0------------------0-----0------------------||
|
|  S  S  S   S  S  S  S  S  S  S  S   S  S  S  S  S
|-12-12-12--12-12-12-12-12-12-12-12--12-12-12-12-12--||
|--x--x--x---x--x--x--x--x--x--x--x---x--x--x--x--x-o||
|--9--9--9---9--9--9--9--9--9--9--9---9--9--9--9--9--||
|----------------------------------------------------||
|---------------------------------------------------o||
|----------------------------------------------------||


  (E)
   Q           H.
|-12-----------------------------------------------|
|--------------------------------------------------|
|--------------9-----------------------------------|
|--------------------------------------------------|
|--------------------------------------------------|
|--------------------------------------------------|
|
|  S  S  S  S  S   S  S  S  S  S  S  S  S  S  S  S
|-12-12-12-12-12--12-12-12-12-12-12-12-12-12-12-12-|
|--x--x--x--x--x---x--x--x--x--x--x--x--x--x--x--x-|
|--9--9--9--9--9---9--9--9--9--9--9--9--9--9--9--9-|
|--------------------------------------------------|
|--------------------------------------------------|
|--------------------------------------------------|


    Q            H.
|-(12)-----------------------------------------------|
|----------------------------------------------------|
|---------------(9)----------------------------------|
|----------------------------------------------------|
|----------------------------------------------------|
|----------------------------------------------------|
|
|   S   S  S  S  S   S  S  S  S  S  S  S  S  S  S  S
|--12--12-12-12-12--12-12-12-12-12-12-12-12-12-12-12-|
|---x---x--x--x--x---x--x--x--x--x--x--x--x--x--x--x-|
|---9---9--9--9--9---9--9--9--9--9--9--9--9--9--9--9-|
|----------------------------------------------------|
|----------------------------------------------------|
|----------------------------------------------------|


  (Bsus4)
   Q           H.
|-------------12-----------------------------------|
|-12-----------------------------------------------|
|--------------------------------------------------|
|--------------------------------------------------|
|--------------------------------------------------|
|--------------------------------------------------|
|
|  S  S  S  S  S   S  S  S  S  S  S  S  S  S  S  S
|-12-12-12-12-12--12-12-12-12-12-12-12-12-12-12-12-|
|--x--x--x--x--x---x--x--x--x--x--x--x--x--x--x--x-|
|--9--9--9--9--9---9--9--9--9--9--9--9--9--9--9--9-|
|--------------------------------------------------|
|--------------------------------------------------|
|--------------------------------------------------|


    Q             H                        Q
|---------------(12)----------------------12----------|
|-(12)------------------------------------------------|
|-----------------------------------------------------|
|-----------------------------------------------------|
|-----------------------------------------------------|
|-----------------------------------------------------|
|
|   S   S  S  S   S   S  S  S  S  S  S  S  S  S  S  S
|--12--12-12-12--12--12-12-12-12-12-12-12-12-12-12-12-|
|---x---x--x--x---x---x--x--x--x--x--x--x--x--x--x--x-|
|---9---9--9--9---9---9--9--9--9--9--9--9--9--9--9--9-|
|-----------------------------------------------------|
|-----------------------------------------------------|
|-----------------------------------------------------|


  (G6sus4)
    Q             H.
|-(12)----------(12)----------------------------------|
|--13-----------(13)----------------------------------|
|----------------12-----------------------------------|
|-----------------------------------------------------|
|-----------------------------------------------------|
|-----------------------------------------------------|
|
|   S   S  S  S   S   S  S  S  S  S  S  S  S  S  S  S
|--12--12-12-12--12--12-12-12-12-12-12-12-12-12-12-12-|
|---x---x--x--x---x---x--x--x--x--x--x--x--x--x--x--x-|
|---9---9--9--9---9---9--9--9--9--9--9--9--9--9--9--9-|
|---x---x--x--x---x---x--x--x--x--x--x--x--x--x--x--x-|
|---7---7--7--7---7---7--7--7--7--7--7--7--7--7--7--7-|
|-----------------------------------------------------|


   +W
|-(12)----------------------------------------------|
|-(13)----------------------------------------------|
|-(12)----------------------------------------------|
|---------------------------------------------------|
|---------------------------------------------------|
|---------------------------------------------------|
|
|   S   S  S  S  S  S  S  S  S  S  S  S  S  S  S  S
|--12--12-12-12-12-12-12-12-12-12-12-12-12-12-12-12-|
|---x---x--x--x--x--x--x--x--x--x--x--x--x--x--x--x-|
|---9---9--9--9--9--9--9--9--9--9--9--9--9--9--9--9-|
|---x---x--x--x--x--x--x--x--x--x--x--x--x--x--x--x-|
|---7---7--7--7--7--7--7--7--7--7--7--7--7--7--7--7-|
|---------------------------------------------------|


  (G6sus4)
   +W
|-(12)----------------------------------------------|
|-(13)----------------------------------------------|
|-(12)----------------------------------------------|
|---------------------------------------------------|
|---------------------------------------------------|
|---------------------------------------------------|
|
|   S   S  S  S  S  S  S  S  S  S  S  S  S  S  S  S
|--12--12-12-12-12-12-12-12-12-12-12-12-12-12-12-12-|
|---x---x--x--x--x--x--x--x--x--x--x--x--x--x--x--x-|
|---9---9--9--9--9--9--9--9--9--9--9--9--9--9--9--9-|
|---x---x--x--x--x--x--x--x--x--x--x--x--x--x--x--x-|
|---7---7--7--7--7--7--7--7--7--7--7--7--7--7--7--7-|
|---------------------------------------------------|


   +W
|-(12)----------------------------------------------||
|-(13)----------------------------------------------||
|-(12)----------------------------------------------||
|---------------------------------------------------||
|---------------------------------------------------||
|---------------------------------------------------||
|
|   S   S  S  S  S  S  S  S  S  S  S  S  S  S  S  S
|--12--12-12-12-12-12-12-12-12-12-12-12-12-12-12-12-||
|---x---x--x--x--x--x--x--x--x--x--x--x--x--x--x--x-||
|---9---9--9--9--9--9--9--9--9--9--9--9--9--9--9--9-||
|---x---x--x--x--x--x--x--x--x--x--x--x--x--x--x--x-||
|---7---7--7--7--7--7--7--7--7--7--7--7--7--7--7--7-||
|---------------------------------------------------||


 Intro Part II
  E5
  Gtrs I, II
         PM------|
   E     S  S  S  S  E     H
|-------------------------------------------------|
|-------------------------------------------------|
|-------------------------------------------------|
|--2-----------------2----------------------------|
|--2-----2--2--2--2--2----------------------------|
|--0-----0--0--0--0--0----------------------------|
|
|  S  S  S  S  S  S  S  S  S  S  S  S  S  S  S  S
|-12-12-12-12-12-12-12-12-12-12-12-12-12-12-12-12-|
|--x--x--x--x--x--x--x--x--x--x--x--x--x--x--x--x-|
|--9--9--9--9--9--9--9--9--9--9--9--9--9--9--9--9-|
|--x--x--x--x--x--x--x--x--x--x--x--x--x--x--x--x-|
|--7--7--7--7--7--7--7--7--7--7--7--7--7--7--7--7-|
|-------------------------------------------------|


                          N.C.
   H                       q           q
|--------------------------0-----------0----------|
|--------------------------6-----------6----------|
|-------------------------------------------------|
|-------------------------------------------------|
|-------------------------------------------------|
|-------------------------------------------------|
|
|  S  S  S  S  S  S  S  S  S  S  S  S  S  S  S  S
|-12-12-12-12-12-12-12-12-12-12-12-12-12-12-12-12-|
|--x--x--x--x--x--x--x--x--x--x--x--x--x--x--x--x-|
|--9--9--9--9--9--9--9--9--9--9--9--9--9--9--9--9-|
|--x--x--x--x--x--x--x--x--x--x--x--x--x--x--x--x-|
|--7--7--7--7--7--7--7--7--7--7--7--7--7--7--7--7-|
|-------------------------------------------------|


  E5
         PM------|               PM------|
   E     S  S  S  S  E     E     S  S  S  S  E
|-------------------------------------------------|
|-------------------------------------------------|
|-------------------------------------------------|
|--2-----------------2-----2-----------------2----|
|--2-----2--2--2--2--2-----2-----2--2--2--2--2----|
|--0-----0--0--0--0--0-----0-----0--0--0--0--0----|
|
|  S  S  S  S  S  S  S  S  S  S  S  S  S  S  S  S
|-12-12-12-12-12-12-12-12-12-12-12-12-12-12-12-12-|
|--x--x--x--x--x--x--x--x--x--x--x--x--x--x--x--x-|
|--9--9--9--9--9--9--9--9--9--9--9--9--9--9--9--9-|
|--x--x--x--x--x--x--x--x--x--x--x--x--x--x--x--x-|
|--7--7--7--7--7--7--7--7--7--7--7--7--7--7--7--7-|
|-------------------------------------------------|


   W
|-------------------------------------------------|
|-------------------------------------------------|
|-------------------------------------------------|
|-------------------------------------------------|
|-------------------------------------------------|
|-------------------------------------------------|
|
|  S  S  S  S  S  S  S  S  S  S  S  S  S  S  S  S
|-12-12-12-12-12-12-12-12-12-12-12-12-12-12-12-12-|
|--x--x--x--x--x--x--x--x--x--x--x--x--x--x--x--x-|
|--9--9--9--9--9--9--9--9--9--9--9--9--9--9--9--9-|
|--x--x--x--x--x--x--x--x--x--x--x--x--x--x--x--x-|
|--7--7--7--7--7--7--7--7--7--7--7--7--7--7--7--7-|
|-------------------------------------------------|


  N.C.                    E5
                                 PM------|
   q           q           E     S  S  S  S  E
|--0-----------0----------------------------------|
|--6-----------6----------------------------------|
|-------------------------------------------------|
|--------------------------2-----------------2----|
|--------------------------2-----2--2--2--2--2----|
|--------------------------0-----0--0--0--0--0----|
|
|  S  S  S  S  S  S  S  S  S  S  S  S  S  S  S  S
|-12-12-12-12-12-12-12-12-12-12-12-12-12-12-12-12-|
|--x--x--x--x--x--x--x--x--x--x--x--x--x--x--x--x-|
|--9--9--9--9--9--9--9--9--9--9--9--9--9--9--9--9-|
|--x--x--x--x--x--x--x--x--x--x--x--x--x--x--x--x-|
|--7--7--7--7--7--7--7--7--7--7--7--7--7--7--7--7-|
|-------------------------------------------------|


         PM------|
   E     S  S  S  S  E     H
|-------------------------------------------------|
|-------------------------------------------------|
|-------------------------------------------------|
|--2-----------------2----------------------------|
|--2-----2--2--2--2--2----------------------------|
|--0-----0--0--0--0--0----------------------------|
|
|  S  S  S  S  S  S  S  S  S  S  S  S  S  S  S  S
|-12-12-12-12-12-12-12-12-12-12-12-12-12-12-12-12-|
|--x--x--x--x--x--x--x--x--x--x--x--x--x--x--x--x-|
|--9--9--9--9--9--9--9--9--9--9--9--9--9--9--9--9-|
|--x--x--x--x--x--x--x--x--x--x--x--x--x--x--x--x-|
|--7--7--7--7--7--7--7--7--7--7--7--7--7--7--7--7-|
|-------------------------------------------------|


  N.C.
   H                       q           q
|--------------------------0-----------0----------|
|--------------------------6-----------6----------|
|-------------------------------------------------|
|-------------------------------------------------|
|-------------------------------------------------|
|-------------------------------------------------|
|
|  S  S  S  S  S  S  S  S  S  S  S  S  S  S  S  S
|-12-12-12-12-12-12-12-12-12-12-12-12-12-12-12-12-|
|--x--x--x--x--x--x--x--x--x--x--x--x--x--x--x--x-|
|--9--9--9--9--9--9--9--9--9--9--9--9--9--9--9--9-|
|--x--x--x--x--x--x--x--x--x--x--x--x--x--x--x--x-|
|--7--7--7--7--7--7--7--7--7--7--7--7--7--7--7--7-|
|-------------------------------------------------|


  E5
         PM------|               PM------|
   E     S  S  S  S  E     E     S  S  S  S  E
|-------------------------------------------------|
|-------------------------------------------------|
|-------------------------------------------------|
|--2-----------------2-----2-----------------2----|
|--2-----2--2--2--2--2-----2-----2--2--2--2--2----|
|--0-----0--0--0--0--0-----0-----0--0--0--0--0----|
|
|  S  S  S  S  S  S  S  S  S  S  S  S  S  S  S  S
|-12-12-12-12-12-12-12-12-12-12-12-12-12-12-12-12-|
|--x--x--x--x--x--x--x--x--x--x--x--x--x--x--x--x-|
|--9--9--9--9--9--9--9--9--9--9--9--9--9--9--9--9-|
|--x--x--x--x--x--x--x--x--x--x--x--x--x--x--x--x-|
|--7--7--7--7--7--7--7--7--7--7--7--7--7--7--7--7-|
|-------------------------------------------------|


  N.C.
   W
|-------------------------------------------------|
|-------------------------------------------------|
|-------------------------------------------------|
|-------------------------------------------------|
|-------------------------------------------------|
|-------------------------------------------------|
|
|  S  S  S  S  S  S  S  S  S  S  S  S  S  S  S  S
|-12-12-12-12-12-12-12-12-12-12-12-12-12-12-12-12-|
|--x--x--x--x--x--x--x--x--x--x--x--x--x--x--x--x-|
|--9--9--9--9--9--9--9--9--9--9--9--9--9--9--9--9-|
|--x--x--x--x--x--x--x--x--x--x--x--x--x--x--x--x-|
|--7--7--7--7--7--7--7--7--7--7--7--7--7--7--7--7-|
|-------------------------------------------------|


   q           q           q           q
|--0-----------0-----------0-----------0----------||
|--6-----------6-----------6-----------6----------||
|-------------------------------------------------||
|-------------------------------------------------||
|-------------------------------------------------||
|-------------------------------------------------||
|
|  S  S  S  S  S  S  S  S  S  S  S  S  S  S  S  S
|-12-12-12-12-12-12-12-12-12-12-12-12-12-12-12-12-||
|--x--x--x--x--x--x--x--x--x--x--x--x--x--x--x--x-||
|--9--9--9--9--9--9--9--9--9--9--9--9--9--9--9--9-||
|--x--x--x--x--x--x--x--x--x--x--x--x--x--x--x--x-||
|--7--7--7--7--7--7--7--7--7--7--7--7--7--7--7--7-||
|-------------------------------------------------||


 Bass Solo
  SpeeH=Hg Up Q=153
  E5
 4/4
  Gtrs I, II
  q       H.                        W
|---------------------------------|----------------------------------|
|---------------------------------|----------------------------------|
|---------------------------------|----------------------------------|
|-2-------------------------------|----------------------------------|
|-2-------------------------------|----------------------------------|
|-0-------------------------------|----------------------------------|
|
| Gtr VI
| S S S S S S S S S S S S S S S S   S S S S S S S S S S S S S S S S
|---------------------------------|----------------------------------|
|---------------------------------|----------------------------------|
|---------------------------------|----------------------------------|
|-4p0-1p0-6p0-3p0-4p0-1p0-6p0-3p0-|-4p0-1p0-6p0-3p0-4p0-1p0-6p0-3p0--|


  Faster Q=163
  E5
  >
  W                                 +W
|---------------------------------|----------------------------------|
|---------------------------------|----------------------------------|
|---------------------------------|----------------------------------|
|-2-------------------------------|-(2)------------------------------|
|-2-------------------------------|-(2)------------------------------|
|-0-------------------------------|-(0)------------------------------|
|
| S S S S S S S S S S S S S S S S    S S S S S S S S S S S S S S S S
|---------------------------------|----------------------------------|
|---------------------------------|----------------------------------|
|---------------------------------|----------------------------------|
|-4p0-1p0-6p0-3p0-4p0-1p0-6p0-3p0-|--4p0-1p0-6p0-3p0-4p0-1p0-6p0-3p0-|


  E5
  +W                                 +W
|----------------------------------|----------------------------------|
|----------------------------------|----------------------------------|
|----------------------------------|----------------------------------|
|-(2)------------------------------|-(2)------------------------------|
|-(2)------------------------------|-(2)------------------------------|
|-(0)------------------------------|-(0)------------------------------|
|
|  S S S S S S S S S S S S S S S S    S S S S S S S S S S S S S S S S
|----------------------------------|----------------------------------|
|----------------------------------|----------------------------------|
|----------------------------------|----------------------------------|
|--4p0-1p0-6p0-3p0-4p0-1p0-6p0-3p0-|--4p0-1p0-6p0-3p0-4p0-1p0-6p0-3p0-|


  E5
  +W                                 +W
|----------------------------------|----------------------------------|
|----------------------------------|----------------------------------|
|----------------------------------|----------------------------------|
|-(2)------------------------------|-(2)------------------------------|
|-(2)------------------------------|-(2)------------------------------|
|-(0)------------------------------|-(0)------------------------------|
|
|  S S S S S S S S S S S S S S S S    S S S S S S S S S S S S S S S S
|----------------------------------|----------------------------------|
|----------------------------------|----------------------------------|
|----------------------------------|----------------------------------|
|--4p0-1p0-6p0-3p0-4p0-1p0-6p0-3p0-|--4p0-1p0-6p0-3p0-4p0-1p0-6p0-3p0-|


  E5
  +W                                 +W
|----------------------------------|----------------------------------|
|----------------------------------|----------------------------------|
|----------------------------------|----------------------------------|
|-(2)------------------------------|-(2)------------------------------|
|-(2)------------------------------|-(2)------------------------------|
|-(0)------------------------------|-(0)------------------------------|
|
|  S S S S S S S S S S S S S S S S    S S S S S S S S S S S S S S S S
|----------------------------------|----------------------------------|
|----------------------------------|----------------------------------|
|----------------------------------|----------------------------------|
|--4p0-1p0-6p0-3p0-4p0-1p0-6p0-3p0-|--4p0-1p0-6p0-3p0-4p0-1p0-6p0-3p0-|


  E5
  Gtrs I, II
  PM    PM    PM    PM      PM  PM    PM      PM  PM    PM    PM
  E. E. E E E E E   E. E. E E E E E   E. E. E E E E E   E. E. E E Q.
|-----------------|-----------------|-----------------|-----------------||
|-----------------|-----------------|-----------------|-----------------||
|----9----9-9---9-|----9--9---9---9-|----9--9---9---9-|----9----9-------||
|----9----9-9---9-|----9--9---9---9-|----9--9---9---9-|----9----9-------||
|-7--7--7-7-7-7-7-|-7--7--7-7-7-7-7-|-7--7--7-7-7-7-7-|-7--7--7-7-------||
|-0--0--0-0-0-0-0-|-0--0--0-0-0-0-0-|-0--0--0-0-0-0-0-|-0--0--0-0-------||


 "Someone go for help.."
  Slightly Faster Q=168
  E5      N.C.      E5    EbE5
  PM    PM                  PM--------|
  E. E. E E E E E   E. E. E S S S S S S E
|-----------------|-----------------------|
|-----------------|-----------------------|
|----9----9-8-4-7-|----9--8---------------|
|----9----x-x-x-x-|----9--8-------------2-|
|-7--7--7-7-6-2-5-|-7--7--6-2-2-2-2-2-2-2-|
|-0--0--0---------|-0--0----0-0-0-0-0-0-0-|


          N.C.      E5    EbE5
  PM    PM          PM      PM--------|
  E. E. E E E E E   E. E. E S S S S S S E
|-----------------|-----------------------|
|-----------------|-----------------------|
|----9----9-8-4-7-|----9--8---------------|
|----9----x-x-x-x-|----9--8-------------2-|
|-7--7--7-7-6-2-5-|-7--7--6-2-2-2-2-2-2-2-|
|-0--0--0---------|-0--0----0-0-0-0-0-0-0-|


  E5
  PM--------|   PM--------|     PM--------|   PM--------|
  S S S S S S E S S S S S S E   S S S S S S E S S S S S S E
|-----------------------------|-----------------------------|
|-----------------------------|-----------------------------|
|-----------------------------|-----------------------------|
|-------------2-------------2-|-------------2-------------2-|
|-2-2-2-2-2-2-2-2-2-2-2-2-2-2-|-2-2-2-2-2-2-2-2-2-2-2-2-2-2-|
|-0-0-0-0-0-0-0-0-0-0-0-0-0-0-|-0-0-0-0-0-0-0-0-0-0-0-0-0-0-|


                                              N.C.
                                                    2/4
  PM--------|   PM--------|     PM--------|          ~
  S S S S S S E S S S S S S E   S S S S S S E H      H
|-----------------------------|--------------------|------||
|-----------------------------|--------------------|------||
|-----------------------------|---------------3----|-6----||
|-------------2-------------2-|-------------2-x----|-x----||
|-2-2-2-2-2-2-2-2-2-2-2-2-2-2-|-2-2-2-2-2-2-2-1----|-4----||
|-0-0-0-0-0-0-0-0-0-0-0-0-0-0-|-0-0-0-0-0-0-0------|------||


   "It took my breath away."
    A Little Slower Q=163
    E5G5F5G5N.C.               E5N.C. E5G5  F5G5N.C.
   3/4                                     4/4
                               PM     PM------|
    E E E E Q    +E  Q.   Q    E Q.   E E   E E E E E E Q
||-------------|-------------|------------|----------------|
||o------------|-------------|------------|----------------|
||----------4--|-(4)---------|---5--------|----------------|
||----------x--|-(x)-5----4--|---x--------|-------------3--|
||o-2-5-3-5-2--|-(2)-x----x--|-2-3----2-5-|-3-5-----3-2----|
||--0-3-1-3----|-----3----2--|-0------0-3-|-1-3-0-1--------|


  E5G5F5G5N.C.               E5N.C.
 3/4                        4/4
                             PM
  E E E E Q    +E  Q.   Q    E Q.   Q  Q
|------------|-------------|---------------||
|------------|-------------|--------------o||
|---------4--|-(4)---------|---5-----------||
|---------x--|-(x)-5----4--|---x----7--5---||
|-2-5-3-5-2--|-(2)-x----x--|-2-3----x--x--o||
|-0-3-1-3----|-----3----2--|-0------6--4---||


 Bridge
  Punch & Kick Q=171
  B5    N.C.
 3/4
  Gtr I
  Q   H         H.            H          Q
|-------------|-------------|-------------||
|-------------|-------------|----------------||
|-4\----------|-------------|----------------||
|-4\----------|-------------|----------------||
|-2\----------|-------------|----------------||
|-------------|-------------|----------------||
|
| Gtr II
| Q   E E E E   E E E E E E   E E H
|-----1p0-----|-1p0-----1p0-|-----0tr1-------||
|---------1p0-|-----1p0-----|-1p0------------||
|-4\----------|-------------|----------------||
|-4\----------|-------------|----------------||
|-2\----------|-------------|----------------||
|-------------|-------------|----------------||


 "These hospital policies.."
  F5 E5 C5 B5   C5 B5BbB5C5 B5  F5 E5 C5 B5   N.C.
                                             4/4
  Gtrs I, II
   E q   E q     E E E E  E E    E q   E q    Q  Q  Q  Q
|-------------|---------------|-------------|-------------|
|-------------|---------------|-------------|-5--5--5--5--|
|-10-9--------|---------------|-10-9--------|-8--8--8--8--|
|-10-9--10-9--|-10-9-8-9-10-9-|-10-9--10-9--|-------------|
|--8-7--10-9--|-10-9-8-9-10-9-|--8-7--10-9--|-------------|
|--------8-7--|--8-7-6-7--8-7-|--------8-7--|-------------|


  F5 E5 C5 B5   C5 B5BbB5C5 B5  F5 E5 C5 B5   N.C.
 3/4                                         4/4
   E q   E q     E E E E  E E    E q   E q    q  H.
|-------------|---------------|-------------|----------||
|-------------|---------------|-------------|-5--------||
|-10-9--------|---------------|-10-9--------|-8--------||
|-10-9--10-9--|-10-9-8-9-10-9-|-10-9--10-9--|----------||
|--8-7--10-9--|-10-9-8-9-10-9-|--8-7--10-9--|----------||
|--------8-7--|--8-7-6-7--8-7-|--------8-7--|----------||


   Breakdown
                         1.,2.,3.                4.
    E5                         N.C.              E5       G#5   F5
                        5/4                     6/4
    Gtr I
    PM-----------------------|                   PM--|
    S S E H    S S S S   S S E H       q  q   4x S S E Q  Q  Q  Q   Q
||---------------------|----------------------||-------------------------||
||o--------------------|---------------5--5--o||-------------------------||
||---------------------|---------------8--8---||-------------------------||
||---------------------|----------------------||----------6-----3--------||
||o-2-2-2------2-2-2-2-|-2-2-2---------------o||-2-2-2----6-----3--------||
||--0-0-0------0-0-0-0-|-0-0-0----------------||-0-0-0----4-----1--------||
|
|   Gtr II
|   PM-----------------------|                   PM--|
|   S S E H    S S S S   S S E E E E E H      4x S S E H     Q  Q   Q
||---------------------|----------------------||-------------------------||
||o--------------------|---------6-6-6-------o||-------------5-----11\---||
||---------------------|---------9-9-9--------||-------------8-----14\---||
||---------------------|----------------------||-------------------------||
||o-2-2-2------2-2-2-2-|-2-2-2---------------o||-2-2-2-------------------||
||--0-0-0------0-0-0-0-|-0-0-0----------------||-0-0-0-------------------||


   "These hospital policies.."
    F5 E5 C5 B5   C5 B5BbB5C5 B5  F5 E5 C5 B5   N.C.
   3/4                                         4/4
    Gtrs I, II
     E q   E q     E E E E  E E    E q   E q    Q  Q  Q  Q
||--------------|---------------|-------------|--------------||
||o-------------|---------------|-------------|-5--5--5--5--o||
||--10-9--------|---------------|-10-9--------|-8--8--8--8---||
||--10-9--10-9--|-10-9-8-9-10-9-|-10-9--10-9--|--------------||
||o--8-7--10-9--|-10-9-8-9-10-9-|--8-7--10-9--|-------------o||
||---------8-7--|--8-7-6-7--8-7-|--------8-7--|--------------||


  N.C.
  Gtr I
   Q          Q          Q          Q
|--6----------6----------6----------6---------|
|-10---------10---------10---------10---------|
|---------------------------------------------|
|---------------------------------------------|
|---------------------------------------------|
|---------------------------------------------|
|
| Gtr II
|  E     +E   E     +E   E     +E   E     +E
|---------------------------------------------|
|---------------------------------------------|
|---------------------------------------------|
|---------------------------------------------|
|---------------------------------------------|
|--5b5.5r(5)--5b5.5r(5)--5b5.5r(5)--5b5.5r(5)-|


   Q      Q    Q   Q     Q    Q   Q  Q
|-12-----12---12--12--|-12---12--12------||
|-16-----16---16--16--|-16---16--16------||
|---------------------|------------------||
|---------------------|------------------||
|---------------------|------------------||
|---------------------|------------------||
|
|         ~~~~~~~~~~~~~~~~~~
|  Q     +H.            +H.          Q
|---------------------|------------------||
|---------------------|------------------||
|---------------------|------------------||
|---------------------|------------------||
|--1b2===(1)----------|-(1)----------xr--||
|---------------------|------------------||


 Interlude
  (Em)                                (E5)              (E)
  Gtrs III, IV
  E E E E E E E E   E E E E E E E E   E E E E E E E E   E E E E E E E E
|-----------------|-----------------|-----------------|-----------------||
|-----------------|-----------------|-----------------|-----------------||
|-----------------|-----------------|-----------------|-----------------||
|---5---5---5---5-|---5---5---5---5-|---9---9---9---9-|---6---6---6---6-||
|-7---7---7---7---|-7---7---7---7---|-7---7---7---7---|-7---7---7---7---||
|-----------------|-----------------|-----------------|-----------------||


   "She says these.."
    E5
    Gtr I
    E E E E E E E E    E  E E E E E E E
||------------------|-------------------|
||o-----------------|-------------------|
||----9-9---9-9---9-|-----9-9---9-9---9-|
||----x-x---x-x---x-|-----x-x---x-x---x-|
||o---7-7---7-7---7-|-----7-7---7-7---7-|
||--0-0-0-0-0-0-0-0-|--6--6-6-6-6-6-6-6-|
|
|   Gtr II
|   W                 +W
||------------------|-------------------|
||o-----------------|-------------------|
||------------------|-------------------|
||--2---------------|-(2)---------------|
||o-2---------------|-(2)---------------|
||--0---------------|-(0)---------------|


                          N.C.
   E  E E E E E E E    E   E  E  E  q  Q
|-------------------|-----------------------||
|-------------------|------8--8--8--7--4---o||
|-----9-9---9-9---9-|------x--x--x--x--x----||
|-----x-x---x-x---x-|------5--5--5--4--1----||
|-----7-7---7-7---7-|----------------------o||
|--8--8-8-8-8-8-8-8-|--3--------------------||
|
| +W                  +E   E  E  E  q  Q
|-------------------|-----------------------||
|-------------------|----------------------o||
|-------------------|-----12-12-12-11--8----||
|-(2)---------------|-(2)--x--x--x--x--x----||
|-(2)---------------|-(2)-10-10-10--9--6---o||
|-(0)---------------|-(0)-------------------||


   Guitar Solo
    E5                                Bbb5
    Gtr V
    PM-----------------------------------------------------------------
    S S S S S S S S S S S S S S S S   S S S S S S S S S S S S S S S S
||----------------------------------|---------------------------------|
||o---------------------------------|---------------------------------|
||----------------------------------|---------------------------------|
||----------------------------------|---------------------------------|
||o-5h7-7-7-7-7-7-7-5h7-7-7-7-7-7-7-|-5h7-7-7-7-7-7-7-5h7-7-7-7-7-7-7-|
||----------------------------------|---------------------------------|
|
|   Gtrs I, II
|   E   E   E   E   E   E   E   E     E   E   E   E   E   E   E   E
||----------------------------------|---------------------------------|
||o---------------------------------|---------------------------------|
||------9---9-------9---9-------9---|-----9---9-------9---9-------9---|
||------x---x-------x---x-------x---|-----x---x-------x---x-------x---|
||o-----7---7-------7---7-------7---|-----7---7-------7---7-------7---|
||--0---0---0---0---0---0---0---0---|-6---6---6---6---6---6---6---6---|


  C                               N.C.
 ---------------------------|                     ~~~
  S S S S S S S S S S S S S S E   +E   E  E  E E +Q.
|-------------------------------|------------------------||
|-------------------------------|-----------------------o||
|-------------------------------|------------------------||
|-----------------------------9-|-(9)-10-12-10-9-(9)-----||
|-5h7-7-7-7-7-7-7-5h7-7-7-7-7---|-----------------------o||
|-------------------------------|------------------------||
|
| E   E   E   E   E   E   E   E    E   E  E  E q     Q
|-------------------------------|------------------------||
|-------------------------------|------8--8--8-7-----4--o||
|-----9---9-------9---9-------9-|------x--x--x-x-----x---||
|-----x---x-------x---x-------x-|------5--5--5-4-----1---||
|-----7---7-------7---7-------7-|-----------------------o||
|-8---8---8---8---8---8---8---8-|--3---------------------||


  E5                 Bbb5               C                  N.C.
                                                                       |--3--|
  E  E E E E E E E   E  E E E E E E E   E  E E E E E E E   E    E E E  Q Q   Q
|------------------|------------------|------------------|---------------------|
|---/5-5-3-5-5-3-5-|---/5-5-3-5-5-3-5-|---/5-5-3-5-5-3-5-|-7b8==7-7-7r-8-5---8-|
|------------------|------------------|------------------|---------------------|
|------------------|------------------|------------------|---------------------|
|------------------|------------------|------------------|---------------------|
|------------------|------------------|------------------|---------------------|
|
| E  E E E E E E E   E  E E E E E E E   E  E E E E E E E   E    E E E  q   Q
|------------------|------------------|------------------|---------------------|
|------------------|------------------|------------------|------8-8-8--7---4---|
|----9-9---9-9---9-|----9-9---9-9---9-|----9-9---9-9---9-|------x-x-x--x---x---|
|----x-x---x-x---x-|----x-x---x-x---x-|----x-x---x-x---x-|------5-5-5--4---1---|
|----7-7---7-7---7-|----7-7---7-7---7-|----7-7---7-7---7-|---------------------|
|-0--0-0-0-0-0-0-0-|-6--6-6-6-6-6-6-6-|-8--8-8-8-8-8-8-8-|-3-------------------|


  E5                    Bbb5
              ~~                    ~~
  E  E  E  E  H         E  E  E  E  H
|-0-17-15-14-15-------|-0-17-15-14-15-------|
|---------------------|---------------------|
|---------------------|---------------------|
|---------------------|---------------------|
|---------------------|---------------------|
|---------------------|---------------------|
|
| E  E  E  E  E E E E   E  E  E  E  E E E E
|---------------------|---------------------|
|---------------------|---------------------|
|----9--9-----9-9---9-|----9--9-----9-9---9-|
|----x--x-----x-x---x-|----x--x-----x-x---x-|
|----7--7-----7-7---7-|----7--7-----7-7---7-|
|-0--0--0--0--0-0-0-0-|-6--6--6--6--6-6-6-6-|


  C                       N.C.
                 ~~~
                                           |--3--|
  E  E  E  E  E  Q.        E  E  E  E  Q   E  E  E
|-0-17-15-14-15-17------|-17s19-17-15-14--14h15p14--|
|-----------------------|---------------------------|
|-----------------------|---------------------------|
|-----------------------|---------------------------|
|-----------------------|---------------------------|
|-----------------------|---------------------------|
|
| E  E  E  E  E  E  E E    E  E  E  E  q   Q
|-----------------------|---------------------------|
|-----------------------|-----8--8--8--7---4--------|
|----9--9-----9--9----9-|-----x--x--x--x---x--------|
|----x--x-----x--x----x-|-----5--5--5--4---1--------|
|----7--7-----7--7----7-|---------------------------|
|-8--8--8--8--8--8--8-8-|--3------------------------|


  E5         Bb5E5    F5       E5
  Gtr V
                        >
   ~~~~~~~~~~~~~~~~~~~~~~~~~~~~~~~~~~~~~~~~~~~~~
   W                   +W
|-12----------------|-(12)---------------------|
|-------------------|--------------------------|
|-------------------|--------------------------|
|-------------------|--------------------------|
|-------------------|--------------------------|
|-------------------|--------------------------|
|
| Gtr I
|  PM------|    PM|
|  S S E E E Q  E E     E    E E   E E   E E E
|-------------------|--------------------------|
|-------------------|----------------------4-5-|
|------------4------|---3----4-------3---4-----|
|------------3------|----------3---2-----------|
|--2-2-2-2-2-2--2-2-|--------------------------|
|--0-0-0-0-0----0-0-|--------------------------|
|
| Gtr II
|  PM------|    PM------------------------------
|  S S E E E Q  E E     S  S E S S E S S E E E
|-------------------|--------------------------|
|-------------------|--------------------------|
|------------4------|--------------------------|
|------------3------|--------------------------|
|--2-2-2-2-2-2--2-2-|---3--3-3-2-2-2-2-2-2-2-2-|
|--0-0-0-0-0----0-0-|---1--1-1-0-0-0-0-0-0-0-0-|


           Bb5E5     N.C.          E5
 ~~~~~~~~~~~~~~~~~~~~~~~~~
   +W                 +W
|-(12)-------------|-(12)----------------|
|------------------|---------------------|
|------------------|---------------------|
|------------------|---------------------|
|------------------|---------------------|
|------------------|---------------------|
|
|   PM---|    PM|                PM
|   |-3--|
|   Q  Q Q Q  E E      E  q  E E E  Q
|------------------|---------------------|
|------------------|---------------------|
|----------4-------|---4--5--------[9]\--|
|----------3-------|---x--x--5-4---------|
|---2--2-2-2--2-2--|---2--3--x-x---------|
|---0--0-0----0-0--|---------3-2-0-------|
|
|--------|    PM|                PM
|   |-3--|
|   Q  Q Q Q  E E      E  q  E E E  Q
|------------------|---------------------|
|------------------|---------------------|
|----------4-------|---4--5--------------|
|----------3-------|---x--x--5-4----2----|
|---2--2-2-2--2-2--|---2--3--x-x----2----|
|---0--0-0----0-0--|---------3-2-0--0----|


  E5        Bb5E5    F5    E5                      Bb5E5    N.C.       E5
  Gtr I
  PM------|    PM|                           PM--|    PM|            PM
                                             |-3-|
  S S E E E Q  E E   E   E E   E E   E E E   Q Q Q Q  E E   E q  E E E  Q
|------------------|-----------------------|--------------|-------------------||
|------------------|-------------------4-5-|--------------|-------------------||
|-----------4------|-3---4-------3---4-----|-------4------|-4-5---------------||
|-----------3------|-------3---2-----------|-------3------|-x-x--5-4----------||
|-2-2-2-2-2-2--2-2-|-----------------------|-2-2-2-2--2-2-|-2-3--x-x---[7]\---||
|-0-0-0-0-0----0-0-|-----------------------|-0-0-0----0-0-|------3-2-0--------||
|
| Gtr II
| PM------|    PM--------------------------------|    PM|            PM
|                                            |-3-|
| S S E E E Q  E E   S S E S S E S S E E E   Q Q Q Q  E E   E q  E E E  Q
|------------------|-----------------------|--------------|-------------------||
|------------------|-----------------------|--------------|-------------------||
|-----------4------|-----------------------|-------4------|-4-5---------------||
|-----------3------|-----------------------|-------3------|-x-x--5-4----2-----||
|-2-2-2-2-2-2--2-2-|-3-3-3-2-2-2-2-2-2-2-2-|-2-2-2-2--2-2-|-2-3--x-x----2-----||
|-0-0-0-0-0----0-0-|-1-1-1-0-0-0-0-0-0-0-0-|-0-0-0----0-0-|------3-2-0--0-----||


   Outro
    E5        Bb5E5    F5    E5                      Bb5E5    N.C.       E5
    PM------|    PM|                           PM--|    PM|            PM
                                               |-3-|
    S S E E E Q  E E   E   E E   E E   E E E   Q Q Q Q  E E   E q  E E E  Q
||-------------------|-----------------------|--------------|------------------|
||o------------------|-------------------4-5-|--------------|------------------|
||------------4------|-3---4-------3---4-----|-------4------|-4-5--------[9]\--|
||------------3------|-------3---2-----------|-------3------|-x-x--5-4---------|
||o-2-2-2-2-2-2--2-2-|-----------------------|-2-2-2-2--2-2-|-2-3--x-x---------|
||--0-0-0-0-0----0-0-|-----------------------|-0-0-0----0-0-|------3-2-0-------|
|
|   PM------|    PM--------------------------------|    PM|            PM
|                                              |-3-|
|   S S E E E Q  E E   S S E S S E S S E E E   Q Q Q Q  E E   E q  E E E  Q
||-------------------|-----------------------|--------------|------------------|
||o------------------|-----------------------|--------------|------------------|
||------------4------|-----------------------|-------4------|-4-5--------------|
||------------3------|-----------------------|-------3------|-x-x--5-4----2----|
||o-2-2-2-2-2-2--2-2-|-3-3-3-2-2-2-2-2-2-2-2-|-2-2-2-2--2-2-|-2-3--x-x----2----|
||--0-0-0-0-0----0-0-|-1-1-1-0-0-0-0-0-0-0-0-|-0-0-0----0-0-|------3-2-0--0----|


  E5        Bb5E5    F5    E5
  Gtr I
  PM------|    PM|
  S S E E E Q  E E   E   E E   E E   E E E
|------------------|-----------------------|
|------------------|-------------------4-5-|
|-----------4------|-3---4-------3---4-----|
|-----------3------|-------3---2-----------|
|-2-2-2-2-2-2--2-2-|-----------------------|
|-0-0-0-0-0----0-0-|-----------------------|
|
| Gtr II
| PM------|    PM---------------------------
| S S E E E Q  E E   S S E S S E S S E E E
|------------------|-----------------------|
|------------------|-----------------------|
|-----------4------|-----------------------|
|-----------3------|-----------------------|
|-2-2-2-2-2-2--2-2-|-3-3-3-2-2-2-2-2-2-2-2-|
|-0-0-0-0-0----0-0-|-1-1-1-0-0-0-0-0-0-0-0-|


        Bb5E5    N.C.       E5
  PM--|    PM|            PM
  |-3-|
  Q Q Q Q  E E   E q  E E E  Q
|--------------|--------------------||
|--------------|-------------------o||
|-------4------|-4-5----------------||
|-------3------|-x-x--5-4-----------||
|-2-2-2-2--2-2-|-2-3--x-x---[7]\---o||
|-0-0-0----0-0-|------3-2-0---------||
|
|-----|    PM|            PM
| |-3-|
| Q Q Q Q  E E   E q  E E E  Q
|--------------|--------------------||
|--------------|-------------------o||
|-------4------|-4-5----------------||
|-------3------|-x-x--5-4----2------||
|-2-2-2-2--2-2-|-2-3--x-x----2-----o||
|-0-0-0----0-0-|------3-2-0--0------||





Comments


Popular Bled tabs & chords
Smoke Breaks Bass Tabs
Smoke Breaks 2 Bass Tabs
Sound Of Sulfur 1 Bass Tabs
Spitshine Sonata Bass Tabs
Daylight Bombings Intro Tabs
I Never Met Another Gemini 2 Tabs
Porcelain Hearts And Hammers For Teeth (Intro) Tabs
Red Wedding Tabs
Sound Of Sulfur Tabs
Sound Of Sulfur 1 Tabs


Song lyrics



↑ Back to top | Tablatures and chords are parodies/interpretations of the original songs. You may use it for private study, scholarship, research or language learning purposes only
© 2014 AZChords.com Contact us | Privacy policy | DMCA | Add/correct tabs | Request tabs | Top 50 tabs