» » »

Blasters, Rebound Tabs (ver.1)

Artists:  A B C D E F G H I J K L M N O P Q R S T U V W X Y Z # 

Rebound Tabs (ver.1)

Blasters Tabs
 Rating:
4.2/5 (5 votes)
Rebound lessons Tabs too difficult? Try these video lessons and learn fast
1
                The Blasters - Rebound


- Intro -
                                    x2
e|-----------------------------------|--------------|
B|-----------------------------------|--------------|
G|-----------------------------------|--------------|
D|-------------7-5--5-7--------------|--------------|
A|-------2--3--3-3--3-3---5--7-5-----|--------2--3--|
E|-3--5-------------------3--3-3-----|--3--5--------|
 |                                  
e|------------12-12-12-12---10--10---|
B|------------13-13-13-13---12--12---|
G|------------12-12-12-12---12--12---|
D|-----------------------------------|
A|-----------------------------------|
E|-----------------------------------|

- Verse -

e|--------------------------|--------------------------|
B|--------------------------|--------------------------|
G|----5------5-----5------5-|--------------------------|
D|----5------5-----5------5-|----2------2-----2------2-|
A|-3----3--3----3----3--3---|----2------2-----2------2-|
E|--------------------------|-0----0--0----0----0--0---|
 |                                                       
e|--------------------------|--------------------------|
B|--------------------------|--------------------------|
G|--------------------------|--------------------------|
D|--------------------------|--------------------------|
A|--------------------------|--------------------------|
E|-8~~-------------------8\-|-\0---------------------0-|
                                                         
e|--------------------------|--------------------------|
B|--------------------------|--------------------------|
G|--------------------------|--------------------------|
D|--------------------------|--------------------------|
A|----5-3--3-5-----5-3--3-5-|----7-5--5-7-----7-5--5-7-|
E|-1--1-1--1-1--1--1-1--1-1-|-3--3-3--3-3--3--3-3--3-3-|
 |                                                         
e|--------------------------|--------------------------|
B|--------------------------|--------------------------|
G|--------------------------|--------------------------|
D|--------------------------|--------------------------|
A|--------------------------|--------------------------|
E|-1~~----------------------|-----------3-3-3-3-3-3-3-3|

- Bridge - x2
                                                         
e|--------------------------|--------------------------|
B|--------------------------|--------------------------|
G|--------------------------|--------------------------|
D|--------------------------|--------------------------|
A|-3--5-3--3-5--5--7-5--5-7-|-3--5-3--3-5--5--7-5--5-7-|
E|-1--1-1--1-1--3--3-3--3-3-|-1--1-1--1-1--3--3-3--3-3-|
 |                                                    
e|--------------------------|--------------------------|
B|--------------------------|--------------------------|
G|--------------------------|--------------------------|
D|--------------------------|--------------------------|
A|--------------------------|--------------------------|
E|-1-1-1-1-1-1--3-3-3-3-3-3-|-1-1-1-1-1-1--3-3-3-3-3-3-|

Chorus:

e|--------------------------|--------------------------|
B|--------------------------|--------------------------|
G|----5------5--------------|----5------5--------------|
D|----5------5-----3------3-|----5------5--55-33-22----|
A|-3----3--3-------3------3-|-3----3--3-------------55-|
E|--------------1----1--1---|--------------------------|
 |
e|--------------------------|--------------------------|
B|--------------------------|--------------------------|
G|--------------------------|--------------------------|
D|--------------------------|--------------------------|
A|-3-3-3-3-3-3--------------|-3-3-3-3-3-3--------------|
E|--------------1-1-1-1-1-1-|--------------1-1-1-1-1-1-|
            
Submit corrections

comments powered by Disqus
↑ Back to top | Blasters Tabs for Rebound. Lyrics for acoustic guitar and electric guitar. 1 Tablatures and chords are parodies/interpretations of the original songs. You may use it for private study, scholarship, research or language learning purposes only