» » »

Blake Shelton, Honey Bee Tabs (ver.2)

Artists:  A B C D E F G H I J K L M N O P Q R S T U V W X Y Z # 

Honey Bee Tabs (ver.2)

Blake Shelton Tabs
Rating:
0/5 (0 votes)
Honey Bee lessons Tabs too difficult? Try these video lessons and learn fast
                Blake Shelton-Honey Bee

Key:
b = bend to note in ( )
r = release bend
h = hammer on
p = pull of
~ = vibrato/let note ring
/ = slide up
\ = slide down
[ ] = palm mute note


Guitar Solo


e------------------------------------------------------------------
B--------------0--0-----------------------0(0)---------------------
G--------------4--4-----------------------4/6---4------------------
D--------------------6\4--2-----2~~----------------6\4--2-4---2~~--
A--14\-----------------------4------------------------------4------
E------------------------------------------------------------------


e----------------------------------------9-------------------------
B---------------------12-------12----------12-9---------9-9--------
G-----9--9------------11b(13)--11b(13)----------11b(13)------------
D-/11------[11]-[9]------------------------------------------------
A------------------------------------------------------------------
E------------------------------------------------------------------


e--0-(0)--0-(0)---0--0-(0)-0--0(0)-0--0(0)-0--0(0)-0---------------
B--12/14--14\12--12--12\9--9--9\7--7--7\5--5--5\4--4--0(0)--0------
G-----------------------------------------------------4/6-----4----
D------------------------------------------------------------------
A------------------------------------------------------------------
E------------------------------------------------------------------


e------------------------------------------------------------------
B-----------9-9--12b(14)rb(14)~~---12------12-------12-------------
G---11b(13)------------------------11b(13)-11b(13)r-9-----9--------
D-------------------------------------------------------11---------
A------------------------------------------------------------------
E------------------------------------------------------------------

                  *Some palm muting here too
e------------------------------------------------------------------
B------------------------------------------------------------------
G---11/13--13\11p9-------9-----------------------------------------
D------------------*11-9---11--------------------------------------
A-----------------------------11\9-7~~-----------------------------
E------------------------------------------------------------------

And there you have it.
            

comments powered by Disqus
↑ Back to top | Blake Shelton Tabs for Honey Bee. Lyrics for acoustic guitar and electric guitar. Tablatures and chords are parodies/interpretations of the original songs. You may use it for private study, scholarship, research or language learning purposes only