>
 >
Memories At The Window

Memories At The Window Bass Tabs

Black Oak Arkansas - Memories At The Window chords, tabs, tablatures, lyrics

Guitar lessons | Add/correct | Request | Top 50 tabs Artists:  A B C D E F G H I J K L M N O P Q R S T U V W X Y Z 0-9

Memories At The Window Bass Tabs – Black Oak Arkansas

CD, Sheet music, Poster

Do you like Memories At The Window? Share with your friends now
Bass TabsTabs
     W                   W                   W                 
G||-------------------|-------------------|-------------------|
D||-------------------|-------------------|-------------------|
A||-------------------|-------------------|-------------------|
E||-------------------|-------------------|-------------------|


  W                   W                   W                   W                 
-------------------|-------------------|-------------------|-------------------|
-------------------|-------------------|-------------------|-------------------|
-------------------|-------------------|-------------------|-------------------|
-------------------|-------------------|-------------------|-------------------|


  W                   W                   W                   W                 
-------------------|-------------------|-------------------|-------------------|
-------------------|-------------------|-------------------|-------------------|
-------------------|-------------------|-------------------|-------------------|
-------------------|-------------------|-------------------|-------------------|


  W                   W                   W                 
-------------------|-------------------|-------------------|
-------------------|-------------------|-------------------|
-------------------|-------------------|-------------------|
-------------------|-------------------|-------------------|


  Q    E  E  Q    E  E     Q    E  E  Q    E  E     Q    E  E  Q    E  E   
------------------------|------------------------|------------------------|
------------------------|------------------------|------------------------|
------------------------|------------------------|------------------------|
--5----5--5--5----5--5--|--5----5--5--5----5--5--|--5----5--5--5----5--5--|


  Q    E  E  Q    E  E     Q    E  E  Q    E  E     Q    E  E  Q    E  E   
------------------------|------------------------|------------------------|
------------------------|------------------------|------------------------|
------------------------|------------------------|------------------------|
--5----5--5--5----5--5--|--7----7--7--7----7--7--|--7----7--7--7----7--7--|


  Q    E  E  Q    E  E     Q    E  E  Q    E  E     Q    E  E  Q    E  E   
------------------------|------------------------|------------------------|
------------------------|------------------------|------------------------|
------------------------|------------------------|------------------------|
--7----7--7--7----7--7--|--7----7--7--7----7--7--|--5----5--5--5----5--5--|


  Q    E  E  Q    E  E     Q    E  E  Q    E  E     Q    E  E  Q    E  E   
------------------------|------------------------|------------------------|
------------------------|------------------------|------------------------|
------------------------|------------------------|------------------------|
--5----5--5--5----5--5--|--5----5--5--5----5--5--|--5----5--5--5----5--5--|


  Q    E  E  Q    E  E     Q    E  E  Q    E  E     Q    E  E  Q    E  E   
------------------------|------------------------|------------------------|
------------------------|------------------------|------------------------|
------------------------|------------------------|------------------------|
--7----7--7--7----7--7--|--7----7--7--7----7--7--|--7----7--7--7----7--7--|


  Q    E  E  Q    E  E     Q    E  E  Q    E  E     Q    E  E  Q    E  E   
------------------------|------------------------|------------------------|
------------------------|------------------------|------------------------|
------------------------|------------------------|------------------------|
--7----7--7--7----7--7--|--5----5--5--5----5--5--|--5----5--5--5----5--5--|


  Q    E  E  Q    E  E     Q    E  E  Q    E  E     Q    E  E  Q    E  E   
------------------------|------------------------|------------------------|
------------------------|------------------------|------------------------|
------------------------|------------------------|------------------------|
--5----5--5--5----5--5--|--5----5--5--5----5--5--|--7----7--7--7----7--7--|


  Q    E  E  Q    E  E     Q    E  E  Q    E  E     Q    E  E  Q    E  E   
------------------------|------------------------|------------------------|
------------------------|------------------------|------------------------|
------------------------|------------------------|------------------------|
--7----7--7--7----7--7--|--7----7--7--7----7--7--|--7----7--7--7----7--7--|


  Q    E  E  Q    E  E     Q    E  E  Q    E  E     Q    E  E  Q    E  E   
------------------------|------------------------|------------------------|
------------------------|------------------------|------------------------|
------------------------|------------------------|------------------------|
--5----5--5--5----5--5--|--5----5--5--5----5--5--|--3----3--3--3----3--3--|


  Q    E  E  Q    E  E     Q    E  E  Q    E  E     Q    E  E  Q    E  E   
------------------------|------------------------|------------------------|
------------------------|------------------------|------------------------|
--5----5--5--5----5--5--|------------------------|------------------------|
------------------------|--5----5--5--5----5--5--|--5----5--5--5----5--5--|


  Q    E  E  Q    E  E     Q    E  E  Q    E  E     Q    E  E  Q    E  E   
------------------------|------------------------|------------------------|
------------------------|------------------------|------------------------|
------------------------|------------------------|--5----5--5--5----5--5--|
--3----3--3--3----3--3--|--3----3--3--3----3--3--|------------------------|


  Q    E  E  Q    E  E     Q    E  E  Q    E  E     Q    E  E  Q    E  E   
------------------------|------------------------|------------------------|
------------------------|------------------------|------------------------|
--5----5--5--5----5--5--|------------------------|------------------------|
------------------------|--5----5--5--5----5--5--|--5----5--5--5----5--5--|


  Q    E  E  Q    E  E     Q    E  E  Q    E  E     Q    E  E  Q    E  E   
------------------------|------------------------|------------------------|
------------------------|------------------------|------------------------|
------------------------|------------------------|------------------------|
--5----5--5--5----5--5--|--5----5--5--5----5--5--|--5----5--5--5----5--5--|


  Q    E  E  Q    E  E     Q    E  E  Q    E  E     Q    E  E  Q    E  E   
------------------------|------------------------|------------------------|
------------------------|------------------------|------------------------|
------------------------|------------------------|------------------------|
--5----5--5--5----5--5--|--5----5--5--5----5--5--|--5----5--5--5----5--5--|


  Q    E  E  Q    E  E     Q    E  E  Q    E  E     Q    E  E  Q    E  E   
------------------------|------------------------|------------------------|
------------------------|------------------------|------------------------|
------------------------|------------------------|------------------------|
--7----7--7--7----7--7--|--7----7--7--7----7--7--|--7----7--7--7----7--7--|


  Q    E  E  Q    E  E     Q    E  E  Q    E  E     Q    E  E  Q    E  E   
------------------------|------------------------|------------------------|
------------------------|------------------------|------------------------|
------------------------|------------------------|------------------------|
--7----7--7--7----7--7--|--5----5--5--5----5--5--|--5----5--5--5----5--5--|


  Q    E  E  Q    E  E     Q    E  E  Q    E  E     Q    E  E  Q    E  E   
------------------------|------------------------|------------------------|
------------------------|------------------------|------------------------|
------------------------|------------------------|------------------------|
--5----5--5--5----5--5--|--5----5--5--5----5--5--|--7----7--7--7----7--7--|


  Q    E  E  Q    E  E     Q    E  E  Q    E  E     Q    E  E  Q    E  E   
------------------------|------------------------|------------------------|
------------------------|------------------------|------------------------|
------------------------|------------------------|------------------------|
--7----7--7--7----7--7--|--7----7--7--7----7--7--|--7----7--7--7----7--7--|


  Q    E  E  Q    E  E     Q    E  E  Q    E  E     Q    E  E  Q    E  E   
------------------------|------------------------|------------------------|
------------------------|------------------------|------------------------|
------------------------|------------------------|------------------------|
--5----5--5--5----5--5--|--5----5--5--5----5--5--|--5----5--5--5----5--5--|


  Q    E  E  Q    E  E     Q    E  E  Q    E  E     Q    E  E  Q    E  E   
------------------------|------------------------|------------------------|
------------------------|------------------------|------------------------|
------------------------|------------------------|------------------------|
--5----5--5--5----5--5--|--7----7--7--7----7--7--|--7----7--7--7----7--7--|


  Q    E  E  Q    E  E     Q    E  E  Q    E  E     Q    E  E  Q    E  E   
------------------------|------------------------|------------------------|
------------------------|------------------------|------------------------|
------------------------|------------------------|------------------------|
--7----7--7--7----7--7--|--7----7--7--7----7--7--|--5----5--5--5----5--5--|


  Q    E  E  Q    E  E     Q    E  E  Q    E  E     Q    E  E  Q    E  E   
------------------------|------------------------|------------------------|
------------------------|------------------------|------------------------|
------------------------|------------------------|--5----5--5--5----5--5--|
--5----5--5--5----5--5--|--3----3--3--3----3--3--|------------------------|


  Q    E  E  Q    E  E     Q    E  E  Q    E  E     Q    E  E  Q    E  E   
------------------------|------------------------|------------------------|
------------------------|------------------------|------------------------|
------------------------|------------------------|------------------------|
--5----5--5--5----5--5--|--5----5--5--5----5--5--|--3----3--3--3----3--3--|


  Q    E  E  Q    E  E     Q    E  E  Q    E  E     Q    E  E  Q    E  E   
------------------------|------------------------|------------------------|
------------------------|------------------------|------------------------|
------------------------|--5----5--5--5----5--5--|--5----5--5--5----5--5--|
--3----3--3--3----3--3--|------------------------|------------------------|


  Q    E  E  Q    E  E     E  E  E  E  E  E  E  E     H           H         
------------------------|--------------------------|--9--------9g13--------|
------------------------|--------------------------|-----------------------|
------------------------|--------------------------|-----------------------|
--5----5--5--5----5--5--|--5-----5-----4-----2-----|-----------------------|


   H         Q     Q       H           H            H         Q     Q     
--16--------18----16----|--9--------9g13--------|--16--------18----16----|
------------------------|-----------------------|------------------------|
------------------------|-----------------------|------------------------|
------------------------|-----------------------|------------------------|


  H          H           H        Q    Q       H          H         
----------------------|---------------------|----------------------|
-----------7g9--------|--7------------------|-----------7g9--------|
--5-------------------|-----------9----7----|--5-------------------|
----------------------|---------------------|----------------------|


  H        Q    Q       H           H            H         Q     Q     
-----------7----9----|--9--------9g13--------|--16--------18----16----|
--7------------------|-----------------------|------------------------|
---------------------|-----------------------|------------------------|
---------------------|-----------------------|------------------------|


  H           H            H         Q     Q       H          H         
--9--------9g13--------|--16--------18----16----|----------------------|
-----------------------|------------------------|-----------7g9--------|
-----------------------|------------------------|--5-------------------|
-----------------------|------------------------|----------------------|


  H        Q    Q       H          H           H        Q    Q     
---------------------|----------------------|-----------7----9----|
--7------------------|-----------7g9--------|--7------------------|
-----------9----7----|--5-------------------|---------------------|
---------------------|----------------------|---------------------|


  W                   W                   W                   W                 
-------------------|-------------------|-------------------|-------------------|
-------------------|-------------------|-------------------|-------------------|
-------------------|-------------------|-------------------|-------------------|
-------------------|-------------------|-------------------|-------------------|


  W                   H.           Q       H        H         
-------------------|--------------------|--------------------|
-------------------|--------------------|--------------------|
-------------------|--------------------|--------------------|
-------------------|---------------0----|--5--------5--------|


  H        H           H        H           H        H         
--------------------|--------------------|--------------------|
--------------------|--------------------|--------------------|
--------------------|--------------------|--------------------|
--5--------5--------|--5--------5--------|--5--------5--------|


  H        Q    E  E     H        Q    E  E     H        Q    E  E   
----------------------|----------------------|----------------------|
----------------------|----------------------|----------------------|
--5--------5----5--5--|--5--------5----5--5--|--3--------3----3--3--|
----------------------|----------------------|----------------------|


  H        Q    E  E     H        Q    E  E     H        Q    E  E   
----------------------|----------------------|----------------------|
----------------------|----------------------|----------------------|
--3--------3----3--3--|--5--------5----5--5--|--5--------5----5--5--|
----------------------|----------------------|----------------------|


  H        Q    E  E     H        Q    E  E     H        Q    E  E   
----------------------|----------------------|----------------------|
----------------------|----------------------|----------------------|
--3--------3----3--3--|--3--------3----3--3--|--1--------1----1--1--|
----------------------|----------------------|----------------------|


  H        Q    E  E     H        Q    E  E     H        Q    E  E   
----------------------|----------------------|----------------------|
----------------------|----------------------|----------------------|
--1--------1----1--1--|--0--------0----0--0--|--0--------0----0--0--|
----------------------|----------------------|----------------------|


  W                   W                   W                   W                 
-------------------|-------------------|-------------------|-------------------|
-------------------|-------------------|-------------------|-------------------|
-------------------|-------------------|-------------------|-------------------|
-------------------|-------------------|-------------------|-------------------|


  W                   H.           Q       H        H         
-------------------|--------------------|--------------------|
-------------------|--------------------|--------------------|
-------------------|--------------------|--------------------|
-------------------|---------------0----|--5--------5--------|


  H        H           H        H           H        H         
--------------------|--------------------|--------------------|
--------------------|--------------------|--------------------|
--------------------|--------------------|--------------------|
--5--------5--------|--5--------5--------|--5--------5--------|


  Q    E  E  Q    E  E     Q    E  E  Q    E  E     Q    E  E  Q    E  E   
------------------------|------------------------|------------------------|
------------------------|------------------------|------------------------|
------------------------|------------------------|------------------------|
--5----5--5--5----5--5--|--5----5--5--5----5--5--|--5----5--5--5----5--5--|


  Q    E  E  Q    E  E     Q    E  E  Q    Q       E  E  E  E  E  E  E  E   
------------------------|-----------------------|--------------------------|
------------------------|-----------------------|--------------0--2--0-----|
------------------------|-----------------------|--------0--2-----------2--|
--5----5--5--5----5--5--|--7----7--7--7---------|--0--2--------------------|


  E  E  E  E  Q    Q       E  Q    Q    Q    E     Q    E  E  Q    E  E   
------------------------|-----------------------|------------------------|
------------------------|-----------------------|------------------------|
------------------------|-----------------------|------------------------|
--5--7--7--7--7---------|--0--2----3----4----4--|--5----5--5--5----5--5--|


  Q    E  E  Q    E  E     Q    E  E  Q    E  E     Q    E  E  Q    E  E   
------------------------|------------------------|------------------------|
------------------------|------------------------|------------------------|
------------------------|------------------------|------------------------|
--5----5--5--5----5--5--|--5----5--5--5----5--5--|--5----5--5--5----5--5--|


  Q    E  E  Q    Q       E  E  E  E  E  E  E  E     E  E  E  E  Q    Q     
-----------------------|--------------------------|------------------------|
-----------------------|--------------0--2--0-----|------------------------|
-----------------------|--------0--2-----------2--|------------------------|
--7----7--7--7---------|--0--2--------------------|--5--7--7--7--7---------|


  E  Q    Q    Q    E     Q    E  E  Q    E  E     Q    E  E  Q    E  E   
-----------------------|------------------------|------------------------|
-----------------------|------------------------|------------------------|
-----------------------|------------------------|------------------------|
--0--2----3----4----4--|--5----5--5--5----5--5--|--5----5--5--5----5--5--|


  Q    E  E  Q    E  E     Q    E  E  Q    E  E     Q    E  E  Q    Q     
------------------------|------------------------|-----------------------|
------------------------|------------------------|-----------------------|
------------------------|------------------------|-----------------------|
--5----5--5--5----5--5--|--5----5--5--5----5--5--|--7----7--7--7---------|


  E  E  E  E  E  E  E  E     E  E  E  E  Q    Q       E  Q    Q    Q    E   
--------------------------|------------------------|-----------------------|
--------------0--2--0-----|------------------------|-----------------------|
--------0--2-----------2--|------------------------|-----------------------|
--0--2--------------------|--5--7--7--7--7---------|--0--2----3----4----4--|


  Q    E  E  Q    E  E     Q    E  E  Q    E  E     Q    E  E  Q    E  E   
------------------------|------------------------|------------------------|
------------------------|------------------------|------------------------|
------------------------|------------------------|------------------------|
--5----5--5--5----5--5--|--5----5--5--5----5--5--|--3----3--3--3----3--3--|


  Q    E  E  Q    E  E     Q    E  E  Q    E  E     Q    E  E  Q    E  E   
------------------------|------------------------|------------------------|
------------------------|------------------------|------------------------|
--5----5--5--5----5--5--|------------------------|------------------------|
------------------------|--5----5--5--5----5--5--|--5----5--5--5----5--5--|


  Q    E  E  Q    E  E     Q    E  E  Q    E  E     Q    E  E  Q    E  E   
------------------------|------------------------|------------------------|
------------------------|------------------------|------------------------|
------------------------|------------------------|--5----5--5--5----5--5--|
--3----3--3--3----3--3--|--3----3--3--3----3--3--|------------------------|


  Q    E  E  Q    E  E     W                                      
------------------------|-------------------|-------------------||
------------------------|-------------------|-------------------||
--5----5--5--5----5--5--|-------------------|-------------------||
------------------------|--5----------------|-------------------||




Duration Legend
---------------
W - whole
H - half
Q - quarter
E - 8th
S - 16th
T - 32nd
X - 64th
. - note dotted
|-n-|  - n-tuplets


Tablature Legend
----------------
L - tied note
x - dead note
g - grace note
(n) - ghost note
> - accentuded note
NH - natural harmonic
AH - artificial harmonic
TH - tapped harmonic
SH - semi harmonic
PH - pitch harmonic
h - hammer on
p - pull off
b - bend
br - bendRelease
pb - preBend
pbr - preBendRelease
brb - bendReleaseBend
\n/ - tremolo bar dip
\n - tremolo bar dive
-/n - tremolo bar Release up
/n\ - tremolo bar inverted dip
/n - tremolo bar return
-\n - tremolo bar Release down
S - shift slide
s - legato slide
/ -  slide into from below or out of upwards
\ -  slide into from above or out of downwards
~ - vibrato
W - wide vibrato
tr - trill
TP - tremolo picking
T - tapping
S - slap
P - pop
< - fade in
^ - brush up
v - brush down





Comments


Popular Black Oak Arkansas tabs & chords
Fever In My Mind Bass Tabs
Jim Dandy Chords
Backdoor Man Tabs
Fever In My Mind Tabs
Happy Hooker Tabs
Hot Rod Tabs
Memories At The Window Tabs


Song lyrics



↑ Back to top | Tablatures and chords are parodies/interpretations of the original songs. You may use it for private study, scholarship, research or language learning purposes only
© 2014 AZChords.com Contact us | Privacy policy | DMCA | Add/correct tabs | Request tabs | Top 50 tabs