» » »

Fever In My Mind Bass tabs (ver.1)

Artists:  A B C D E F G H I J K L M N O P Q R S T U V W X Y Z # 

Fever In My Mind Bass tabs (ver.1)

Black Oak Arkansas
Rating:
5/5 (1 vote)
Tabs too difficult? Try these video lessons and learn fast.
                     W                   W                   W                 
G||-------------------|-------------------|-------------------|
D||-------------------|-------------------|-------------------|
A||-------------------|-------------------|-------------------|
E||-------------------|-------------------|-------------------|


  W                   H        E  S E  S E     E.  S E.  S E.  S E  E   
-------------------|------------------------|--------------------------|
-------------------|----------------5--5-5--|--3-----3-----3---3-3--3--|
-------------------|--------------5---------|------3-----3-------------|
-------------------|------------------------|--------------------------|


  E.  S E.  S E.  S E  E     E  S S E  S S E  S S S S S S  
--------------------------|-------------------------------|
--5-----5-----5---5-5--5--|---------7------7--5-5-5-5-5-5-|
------5-----5-------------|-------------------------------|
--------------------------|--5--5-5----5-5----------------|


  E.  S E.  S S S S S S S S S    E  S S E.  S S S S S S S S S  
------------------------------|-------------------------------|
--7-----7---------7-7-5-5-----|---------7---7-7-7-7-7-7-------|
--------------------------7-7-|---------------------------5-7-|
------5-----5-5-5-------------|--5--5-5-----------------7-----|


  E  S S E  S S S S S S S S S S    E  S S E  S S S S S S S S S S  
--------------------------------|--------------------------------|
---------7--7-7-7-7-7-7-7-------|---------7--7-7-7-7-7-7-7-------|
----------------------------5-7-|----------------------------5-7-|
--5--5-5------------------7-----|--5--5-5------------------7-----|


  E  S S E  E  S S S E  S E     E.  S E.  S E.  S S S S S  
-----------------------------|----------------------------|
---------7--7--7-7---7----5--|--3-----3-----3-----3-3-3-3-|
-----------------------------|----------------------------|
--5--5-5-----------5----5----|------1-----1-----1---------|


  E.  S E.  S E.  S S S S S    E  S S E  S E.  S E  S E   
----------------------------|----------------------------|
--5-----5-----5-----5-5-5-5-|---------7----7-----5----5--|
----------------------------|----------------------------|
------3-----3-----3---------|--5--5-5----5-----5----5----|


  E  S S E  S E.  S E.  E     E.  S E.  S E.  S S S S S  
---------------------------|----------------------------|
---------7----7-----7---5--|--3-----3-----3-----3-3-3-3-|
---------------------------|----------------------------|
--5--5-5----5-----5--------|------1-----1-----1---------|


  E.  S E.  S E.  S S S S S    E  S S E  S E.  S E  S E   
----------------------------|----------------------------|
--5-----5-----5-----5-5-5-5-|---------7----7-----5----5--|
----------------------------|----------------------------|
------3-----3-----3---------|--5--5-5----5-----5----5----|


  E  S S E  S E.  S E.  E     E.  S E.  S E.  S S S S S  
---------------------------|----------------------------|
---------7----7-----7---5--|--3-----3-----3-----3-3-3-3-|
---------------------------|----------------------------|
--5--5-5----5-----5--------|------1-----1-----1---------|


  E.  S E.  S E.  S S S S S    E  S S E  S E.  S E  S E   
----------------------------|----------------------------|
--5-----5-----5-----5-5-5-5-|---------7----7-----5----5--|
----------------------------|----------------------------|
------3-----3-----3---------|--5--5-5----5-----5----5----|


  E  S S E  S E.  S E.  E     E.  S E.  S E.  S S S S S  
---------------------------|----------------------------|
---------7----7-----7---5--|--3-----3-----3-----3-3-3-3-|
---------------------------|----------------------------|
--5--5-5----5-----5--------|------1-----1-----1---------|


  E.  S E.  S E.  S S S S S    E  S S E  S E.  S E  S E   
----------------------------|----------------------------|
--5-----5-----5-----5-5-5-5-|---------7----7-----5----5--|
----------------------------|----------------------------|
------3-----3-----3---------|--5--5-5----5-----5----5----|


  E  S S E  S E.  S E.  E     E.  S E.  S E.  S S S S S  
---------------------------|----------------------------|
---------7----7-----7---5--|--3-----3-----3-----3-3-3-3-|
---------------------------|----------------------------|
--5--5-5----5-----5--------|------1-----1-----1---------|


  E.  S E.  S E.  S S S S S    E  S S E  S E.  S E  S E   
----------------------------|----------------------------|
--5-----5-----5-----5-5-5-5-|---------7----7-----5----5--|
----------------------------|----------------------------|
------3-----3-----3---------|--5--5-5----5-----5----5----|


  E  S S E  S E.  S E.  E     E.  S E.  S E.  S S S S S  
---------------------------|----------------------------|
---------7----7-----7---5--|--3-----3-----3-----3-3-3-3-|
---------------------------|----------------------------|
--5--5-5----5-----5--------|------1-----1-----1---------|


  E.  S E.  S E.  S S S S S    E  S S E  S E.  S E  S E   
----------------------------|----------------------------|
--5-----5-----5-----5-5-5-5-|---------7----7-----5----5--|
----------------------------|----------------------------|
------3-----3-----3---------|--5--5-5----5-----5----5----|


  E  S S E  S E.  S E.  E     E.  S E.  S E.  S S S S S  
---------------------------|----------------------------|
---------7----7-----7---5--|--3-----3-----3-----3-3-3-3-|
---------------------------|----------------------------|
--5--5-5----5-----5--------|------1-----1-----1---------|


  E.  S E.  S E.  S S S S S    E  S S E  S E.  S E  S E   
----------------------------|----------------------------|
--5-----5-----5-----5-5-5-5-|---------7----7-----5----5--|
----------------------------|----------------------------|
------3-----3-----3---------|--5--5-5----5-----5----5----|


  E  S S E  S E.  S E.  E     E  S S E.  S S S S S S S S S  
---------------------------|-------------------------------|
---------7----7-----7---5--|---------7---7-7-7-7-7-7-------|
---------------------------|---------------------------5-7-|
--5--5-5----5-----5--------|--5--5-5-----------------7-----|


  E  S S E  S S S S S S S S S S    E  S S E  S S S S S S S S S S  
--------------------------------|--------------------------------|
---------7--7-7-7-7-7-7-7-------|---------7--7-7-7-7-7-7-7-------|
----------------------------5-7-|----------------------------5-7-|
--5--5-5------------------7-----|--5--5-5------------------7-----|


  E  S S E  E  S S S E  S E     E.  S E.  S E.  S S S S S  
-----------------------------|----------------------------|
---------7--7--7-7---7----5--|--3-----3-----3-----3-3-3-3-|
-----------------------------|----------------------------|
--5--5-5-----------5----5----|------1-----1-----1---------|


  E.  S E.  S E.  S S S S S    E  S S E  S E.  S E  S E   
----------------------------|----------------------------|
--5-----5-----5-----5-5-5-5-|---------7----7-----5----5--|
----------------------------|----------------------------|
------3-----3-----3---------|--5--5-5----5-----5----5----|


  E  S S E  S E.  S E.  E     E.    S  H.            
---------------------------|------------------------|
---------7----7-----7---5--|------------------------|
---------------------------|------------------------|
--5--5-5----5-----5--------|--5S---(x)--------------|


  E.  S E.  S E.  S S S S S    E.  S E.  S E.  S S S S S  
----------------------------|----------------------------|
--3-----3-----3-----3-3-3-3-|--5-----5-----5-----5-5-5-5-|
----------------------------|----------------------------|
------1-----1-----1---------|------3-----3-----3---------|


  E  S S E  S E.  S E  S E     E  S S E  S E.  S E.  E   
----------------------------|---------------------------|
---------7----7-----5----5--|---------7----7-----7---5--|
----------------------------|---------------------------|
--5--5-5----5-----5----5----|--5--5-5----5-----5--------|


  E.  S E.  S E.  S S S S S    E.  S E.  S E.  S S S S S  
----------------------------|----------------------------|
--3-----3-----3-----3-3-3-3-|--5-----5-----5-----5-5-5-5-|
----------------------------|----------------------------|
------1-----1-----1---------|------3-----3-----3---------|


  E  S S E  S E.  S E  S E     E  S S E  S E.  S E.  E   
----------------------------|---------------------------|
---------7----7-----5----5--|---------7----7-----7---5--|
----------------------------|---------------------------|
--5--5-5----5-----5----5----|--5--5-5----5-----5--------|


  E.  S E.  S E.  S S S S S    E.  S E.  S E.  S S S S S  
----------------------------|----------------------------|
--3-----3-----3-----3-3-3-3-|--5-----5-----5-----5-5-5-5-|
----------------------------|----------------------------|
------1-----1-----1---------|------3-----3-----3---------|


  E  S S E  S E.  S E  S E     E  S S E  S E.  S E.  E   
----------------------------|---------------------------|
---------7----7-----5----5--|---------7----7-----7---5--|
----------------------------|---------------------------|
--5--5-5----5-----5----5----|--5--5-5----5-----5--------|


  E.  S E.  S E.  S S S S S    E.  S E.  S E.  S S S S S  
----------------------------|----------------------------|
--3-----3-----3-----3-3-3-3-|--5-----5-----5-----5-5-5-5-|
----------------------------|----------------------------|
------1-----1-----1---------|------3-----3-----3---------|


  E  S S E  S E.  S E  S E     E  S S E  S E.  S E.  E   
----------------------------|---------------------------|
---------7----7-----5----5--|---------7----7-----7---5--|
----------------------------|---------------------------|
--5--5-5----5-----5----5----|--5--5-5----5-----5--------|


  E.  S E.  S E.  S S S S S    E.  S E.  S E.  S S S S S  
----------------------------|----------------------------|
--3-----3-----3-----3-3-3-3-|--5-----5-----5-----5-5-5-5-|
----------------------------|----------------------------|
------1-----1-----1---------|------3-----3-----3---------|


  E  S S E  S E.  S E  S E     E  S S E  S E.  S E.  E   
----------------------------|---------------------------|
---------7----7-----5----5--|---------7----7-----7---5--|
----------------------------|---------------------------|
--5--5-5----5-----5----5----|--5--5-5----5-----5--------|


  E.  S E.  S E.  S S S S S    E.  S E.  S E.  S S S S S  
----------------------------|----------------------------|
--3-----3-----3-----3-3-3-3-|--5-----5-----5-----5-5-5-5-|
----------------------------|----------------------------|
------1-----1-----1---------|------3-----3-----3---------|


  E  S S E  S E.  S E  S E     E  S S E  S E.  S E.  E     Q    Q    H          
----------------------------|---------------------------|---------------------||
---------7----7-----5----5--|---------7----7-----7---5--|--7------------------||
----------------------------|---------------------------|---------------------||
--5--5-5----5-----5----5----|--5--5-5----5-----5--------|---------------------||




Duration Legend
---------------
W - whole
H - half
Q - quarter
E - 8th
S - 16th
T - 32nd
X - 64th
. - note dotted
|-n-|  - n-tuplets


Tablature Legend
----------------
L - tied note
x - dead note
g - grace note
(n) - ghost note
> - accentuded note
NH - natural harmonic
AH - artificial harmonic
TH - tapped harmonic
SH - semi harmonic
PH - pitch harmonic
h - hammer on
p - pull off
b - bend
br - bendRelease
pb - preBend
pbr - preBendRelease
brb - bendReleaseBend
\n/ - tremolo bar dip
\n - tremolo bar dive
-/n - tremolo bar Release up
/n\ - tremolo bar inverted dip
/n - tremolo bar return
-\n - tremolo bar Release down
S - shift slide
s - legato slide
/ -  slide into from below or out of upwards
\ -  slide into from above or out of downwards
~ - vibrato
W - wide vibrato
tr - trill
TP - tremolo picking
T - tapping
S - slap
P - pop
< - fade in
^ - brush up
v - brush down
            
Tabs too difficult? Try these video lessons and learn fast.


comments powered by Disqus
↑ Back to top | Tablatures and chords are parodies/interpretations of the original songs. You may use it for private study, scholarship, research or language learning purposes only