>
 >
Fever In My Mind

Fever In My Mind Guitar Tabs

Black Oak Arkansas - Fever In My Mind chords, tabs, tablatures, lyrics

Guitar lessons | Add/correct | Request | Top 50 tabs Artists:  A B C D E F G H I J K L M N O P Q R S T U V W X Y Z 0-9

Fever In My Mind Guitar Tabs – Black Oak Arkansas

CD, Sheet music, Poster

Do you like Fever In My Mind? Share with your friends now
Bass TabsTabs
Guitar 1


     W                    E   S  S  E   S  E   S  S  S  S  S  S  S  
E||-------------------|--------------------------------------------|
B||-------------------|--10--10-10-10-----10--10-13-13-13-13-13-13-|
G||-------------------|----------------12--------------------------|
D||-------------------|--------------------------------------------|
A||-------------------|--------------------------------------------|
E||-------------------|--------------------------------------------|


   E   S  S  E   S  E   S  S  S  S  S  S  S  
--------------------------------------------|
--10--10-10-10-----10--10-13-13-13-13-13-13-|
----------------12--------------------------|
--------------------------------------------|
--------------------------------------------|
--------------------------------------------|


   E   S  S  E   S  E   S  S  S  S  S  S  S  
--------------------------------------------|
--10--10-10-10-----10--10-13-13-13-13-13-13-|
----------------12--------------------------|
--------------------------------------------|
--------------------------------------------|
--------------------------------------------|


   E   S  S  E   S  E   S  S  S  S  S  S  S  
--------------------------------------------|
--10--10-10-10-----10--10-13-13-13-13-13-13-|
----------------12--------------------------|
--------------------------------------------|
--------------------------------------------|
--------------------------------------------|


   E   S  S  E   S  E   S  S  S  S  S  S  S  
--------------------------------------------|
--10--10-10-10-----10--10-13-13-13-13-13-13-|
----------------12--------------------------|
--------------------------------------------|
--------------------------------------------|
--------------------------------------------|


   E   S  S  E   S  E   S  S  S  S  S  S  S  
--------------------------------------------|
--10--10-10-10-----10--10-13-13-13-13-13-13-|
----------------12--------------------------|
--------------------------------------------|
--------------------------------------------|
--------------------------------------------|


   E   S  S  E   S  E   S  S  S  S  S  S  S  
--------------------------------------------|
--10--10-10-10-----10--10-13-13-13-13-13-13-|
----------------12--------------------------|
--------------------------------------------|
--------------------------------------------|
--------------------------------------------|


   E   S  S  E   S  E   S  S  S  S  S  S  S  
--------------------------------------------|
--10--10-10-10-----10--10-13-13-13-13-13-13-|
----------------12--------------------------|
--------------------------------------------|
--------------------------------------------|
--------------------------------------------|


   E   S  S  E   S  E   S  S  S  S  S  S  S  
--------------------------------------------|
--10--10-10-10-----10--10-13-13-13-13-13-13-|
----------------12--------------------------|
--------------------------------------------|
--------------------------------------------|
--------------------------------------------|


   E   S  S  E   S  E   S  S  S  S  S  S  S  
--------------------------------------------|
--10--10-10-10-----10--10-13-13-13-13-13-13-|
----------------12--------------------------|
--------------------------------------------|
--------------------------------------------|
--------------------------------------------|


   E   S  S  E   S  E   S  S  S  S  S  S  S  
--------------------------------------------|
--10--10-10-10-----10--10-13-13-13-13-13-13-|
----------------12--------------------------|
--------------------------------------------|
--------------------------------------------|
--------------------------------------------|


   E   S  S  E   S  E   S  S  S  S   S  S  S  
--------------------------------10br-L----10-|
--10--10-10-10-----10--10-13-10--------13----|
----------------12---------------------------|
---------------------------------------------|
---------------------------------------------|
---------------------------------------------|


   E   S  S  E   S  E   S  S  S  S  S  S  S  
--------------------------------------------|
--10--10-10-10-----10--10-13-13-13-13-13-13-|
----------------12--------------------------|
--------------------------------------------|
--------------------------------------------|
--------------------------------------------|


   E   S  S  E   S  E   S  S  S  S  S  S  S  
--------------------------------------------|
--10--10-10-10-----10--10-13-13-13-13-13-13-|
----------------12--------------------------|
--------------------------------------------|
--------------------------------------------|
--------------------------------------------|


   E   S  S  E   S  E   S  S  S  S  S  S  S  
--------------------------------------------|
--10--10-10-10-----10--10-13-13-13-13-13-13-|
----------------12--------------------------|
--------------------------------------------|
--------------------------------------------|
--------------------------------------------|


   E   S  S  E   S  E   S  S  S  S  S  S  S  
--------------------------------------------|
--10--10-10-10-----10--10-13-13-13-13-13-13-|
----------------12--------------------------|
--------------------------------------------|
--------------------------------------------|
--------------------------------------------|


   E   S  S  E   S  E   S  S  S  S  S  S  S  
--------------------------------------------|
--10--10-10-10-----10--10-13-13-13-13-13-13-|
----------------12--------------------------|
--------------------------------------------|
--------------------------------------------|
--------------------------------------------|


   E   S  S  E   S  E   S  S  S  S  S  S  S  
--------------------------------------------|
--10--10-10-10-----10--10-13-13-13-13-13-13-|
----------------12--------------------------|
--------------------------------------------|
--------------------------------------------|
--------------------------------------------|


   E   S  S  E   S  E   S  S  S  S  S  S  S  
--------------------------------------------|
--10--10-10-10-----10--10-13-13-13-13-13-13-|
----------------12--------------------------|
--------------------------------------------|
--------------------------------------------|
--------------------------------------------|


   E   S  S  E   S  E   S  S  S  S  S  S  S  
--------------------------------------------|
--10--10-10-10-----10--10-13-13-13-13-13-13-|
----------------12--------------------------|
--------------------------------------------|
--------------------------------------------|
--------------------------------------------|


   E   S  S  E   S  E   S  S  S  S  S  S  S  
--------------------------------------------|
--10--10-10-10-----10--10-13-13-13-13-13-13-|
----------------12--------------------------|
--------------------------------------------|
--------------------------------------------|
--------------------------------------------|


   E   S  S  E   S  E   S  S  S  S  S  S  S  
--------------------------------------------|
--10--10-10-10-----10--10-13-13-13-13-13-13-|
----------------12--------------------------|
--------------------------------------------|
--------------------------------------------|
--------------------------------------------|


   E   S  S  E   S  E   S  S  S  S  S  S  S  
--------------------------------------------|
--10--10-10-10-----10--10-13-13-13-13-13-13-|
----------------12--------------------------|
--------------------------------------------|
--------------------------------------------|
--------------------------------------------|


   E   S  S  E   S  E   S  S  E.     S  S  
-----------------------------10br------10-|
--10--10-10-10-----10--10-13--------13----|
----------------12------------------------|
------------------------------------------|
------------------------------------------|
------------------------------------------|


   S  E   S  S  S  S  S   T X  S  S  S  S  S  S  S  X    
---------------------------------------------------15br-|
--13-10~--L-------13-15br-L-L-13-------13----13-15------|
------------12-14----------------14-14----14------------|
--------------------------------------------------------|
--------------------------------------------------------|
--------------------------------------------------------|


   E   S  Q     S  E     S  E     S  S  S  
---L-----15b----L-15br--------------------|
------13----------------15-15br--13-15----|
---------------------------------------14-|
------------------------------------------|
------------------------------------------|
------------------------------------------|


   S  S  S  E   S  S  S  E     S  S  S  S  S  S  
------------------------------------------------|
--13-----------------13-15br--13----------13----|
-----14-14-14--14-14-------------14-14-14----14-|
------------------------------------------------|
------------------------------------------------|
------------------------------------------------|


   E   S  S  S  S  E     S  S  S  S  S  S E   
---------------------------------------------|
------------13----15br--13-------13----13-L--|
---L--14-12----14----------14-12----14-------|
---------------------------------------------|
---------------------------------------------|
---------------------------------------------|


   S   S  S  S   S  S  S   S  S  S   S  S  S   S  S  S   
--------------------------------------------------------|
---------13--------13--------13--------13--------13-----|
--12h-14----12h-14----12h-14----12h-14----12h-14----12h-|
--------------------------------------------------------|
--------------------------------------------------------|
--------------------------------------------------------|


   S  S  S   S  S  S   S  S  S   S  S  S   S  S  S  S    
---------------------------------------------------15br-|
-----13--------13--------13--------13--------13-15------|
--14----12h-14----12h-14----12h-14----12h-14------------|
--------------------------------------------------------|
--------------------------------------------------------|
--------------------------------------------------------|


  E   S  Q     S  E     S  E     S  S  S  
--L-----15b----L-15br--------------------|
-----13----------------15-15br--13-15----|
--------------------------------------14-|
-----------------------------------------|
-----------------------------------------|
-----------------------------------------|


   S  E.    S  S  S  E    S  S  S  E   E   
------------------------------------------|
--13-------------13-15b-----13-15-13------|
-----14b---14-14---------14-----------14--|
------------------------------------------|
------------------------------------------|
------------------------------------------|


   S   S   T   T   S   T   T   S   T   T   S   T   T   S   T   T   S   T   T   S
--------------------------------------------------------------------------------
--15p-13h-15h-15p-13h-15h-15p-13h-15h-15p-13h-15h-15p-13h-15h-15p-13h-15h-15p-13
--------------------------------------------------------------------------------
--------------------------------------------------------------------------------
--------------------------------------------------------------------------------
--------------------------------------------------------------------------------


   S   S   T   T   S   T   T   S   T   T   S   T   T   S   T   T   S   T   T   S
--------------------------------------------------------------------------------
--15p-13h-15h-15p-13h-15h-15p-13h-15h-15p-13h-15h-15p-13h-15h-15p-13h-15h-15p-13
--------------------------------------------------------------------------------
--------------------------------------------------------------------------------
--------------------------------------------------------------------------------
--------------------------------------------------------------------------------


  E   Q     E   E     S  E     S  S  S  
--L--15b----L--15br--------------------|
---------------------15-15br--13-15----|
------------------------------------14-|
---------------------------------------|
---------------------------------------|
---------------------------------------|


   S  E.     S  S  S  E    S  S  S  Q     
-----------------------------------------|
--13--------------13-15b-----13-15-13----|
-----14br---14-14---------14-------------|
-----------------------------------------|
-----------------------------------------|
-----------------------------------------|


   E    T  S  Q     X  E    X  S  Q     S  
--15br--L----15b----L-15br--L----15b----L-|
----------15------------------15----------|
------------------------------------------|
------------------------------------------|
------------------------------------------|
------------------------------------------|


   E     S  Q     T  E    X  S  E     S  E   X  
--15br-----15b----L-15br--L----15br-----15b--L-|
--------15------------------15-------15--------|
-----------------------------------------------|
-----------------------------------------------|
-----------------------------------------------|
-----------------------------------------------|


   H          E     S  E     S  S  S  
--15b--------15br--------------------|
-------------------15-15br--13-15----|
----------------------------------14-|
-------------------------------------|
-------------------------------------|
-------------------------------------|


   S  S  E   S  S  S  E    S  S  S  E   E    
--------------------------------------------|
--13-----------13----15b-----13-15-13-------|
-----14-14--14----14------14-----------14S--|
--------------------------------------------|
--------------------------------------------|
--------------------------------------------|


   E    S  S  E   S  E   S  S  S  S  S  S  S  
---------------------------------------------|
--10---10-10-10-----10--10-13-13-13-13-13-13-|
--(x)------------12--------------------------|
---------------------------------------------|
---------------------------------------------|
---------------------------------------------|


   E   S  S  E   S  E   S  S  S  S  S  S  S  
--------------------------------------------|
--10--10-10-10-----10--10-13-13-13-13-13-13-|
----------------12--------------------------|
--------------------------------------------|
--------------------------------------------|
--------------------------------------------|


   E   S  S  E   S  E   S  S  S  S  S  S  S  
--------------------------------------------|
--10--10-10-10-----10--10-13-13-13-13-13-13-|
----------------12--------------------------|
--------------------------------------------|
--------------------------------------------|
--------------------------------------------|


   E   S  S  E   S  E   S  S  S  S   S  S  S  
--------------------------------10br-L----10-|
--10--10-10-10-----10--10-13-10--------13----|
----------------12---------------------------|
---------------------------------------------|
---------------------------------------------|
---------------------------------------------|


   E   S  S  E   S  E   S  S  S  S  S  S  S  
--------------------------------------------|
--10--10-10-10-----10--10-13-13-13-13-13-13-|
----------------12--------------------------|
--------------------------------------------|
--------------------------------------------|
--------------------------------------------|


   E   S  S  E   S  E   S  S  S  S  S  S  S  
--------------------------------------------|
--10--10-10-10-----10--10-13-13-13-13-13-13-|
----------------12--------------------------|
--------------------------------------------|
--------------------------------------------|
--------------------------------------------|


   E   S  S  E   S  E   S  S  S  S  S  S  S  
--------------------------------------------|
--10--10-10-10-----10--10-13-13-13-13-13-13-|
----------------12--------------------------|
--------------------------------------------|
--------------------------------------------|
--------------------------------------------|


   E   S  S  E   S  E   S  S  S  S  S  S  S     E.    S  H.            
--------------------------------------------|-------------------------|
--10--10-10-10-----10--10-13-13-13-13-13-13-|--10S---(x)--------------|
----------------12--------------------------|-------------------------|
--------------------------------------------|-------------------------|
--------------------------------------------|-------------------------|
--------------------------------------------|-------------------------|


   E   S  S  E   S  E   S  S  S  S  S  S  S  
--------------------------------------------|
--10--10-10-10-----10--10-13-13-13-13-13-13-|
----------------12--------------------------|
--------------------------------------------|
--------------------------------------------|
--------------------------------------------|


   E   S  S  E   S  E   S  S  S  S  S  S  S  
--------------------------------------------|
--10--10-10-10-----10--10-13-13-13-13-13-13-|
----------------12--------------------------|
--------------------------------------------|
--------------------------------------------|
--------------------------------------------|


   E   S  S  E   S  E   S  S  S  S  S  S  S  
--------------------------------------------|
--10--10-10-10-----10--10-13-13-13-13-13-13-|
----------------12--------------------------|
--------------------------------------------|
--------------------------------------------|
--------------------------------------------|


   E   S  S  E   S  E   S  S  S  S  S  S  S  
--------------------------------------------|
--10--10-10-10-----10--10-13-13-13-13-13-13-|
----------------12--------------------------|
--------------------------------------------|
--------------------------------------------|
--------------------------------------------|


   E   S  S  E   S  E   S  S  S  S  S  S  S  
--------------------------------------------|
--10--10-10-10-----10--10-13-13-13-13-13-13-|
----------------12--------------------------|
--------------------------------------------|
--------------------------------------------|
--------------------------------------------|


   E   S  S  E   S  E   S  S  S  S  S  S  S  
--------------------------------------------|
--10--10-10-10-----10--10-13-13-13-13-13-13-|
----------------12--------------------------|
--------------------------------------------|
--------------------------------------------|
--------------------------------------------|


   E   S  S  E   S  E   S  S  S  S  S  S  S  
--------------------------------------------|
--10--10-10-10-----10--10-13-13-13-13-13-13-|
----------------12--------------------------|
--------------------------------------------|
--------------------------------------------|
--------------------------------------------|


   E   S  S  E   S  E   S  S  S  S  S  S  S   
---------------------------------------------|
--10--10-10-10-----10--10-13-13-13-13-13-13S-|
----------------12---------------------------|
---------------------------------------------|
---------------------------------------------|
---------------------------------------------|


   E    Q      E   E     S  S  S  E.      
--12---12~-------------------------------|
--15b--15b~----L--15br--13----13-15brb---|
---------------------------14------------|
-----------------------------------------|
-----------------------------------------|
-----------------------------------------|


  E   Q     E   S   S  S  E     S  E    
----------------------------------15b--|
--L-------------------13-15br--13------|
-----12~----L--12h-14------------------|
---------------------------------------|
---------------------------------------|
---------------------------------------|


  X  H          E     S  E     S  S  T X     E   Q     S  E.    E    E.  T  T  
--L-15b--------15br----------------------|------------------------------------|
---------------------15-15br--13-15------|--13--------13-15b---15~--13---L-13-|
------------------------------------14-L-|------14----------------------------|
-----------------------------------------|------------------------------------|
-----------------------------------------|------------------------------------|
-----------------------------------------|------------------------------------|


  T  E.    S   E.   Q    T  S  S  S  S   
----------------------------------------|
--L-15b---15~-13--------------13-15-15b-|
-------------------14----L-14-----------|
----------------------------------------|
----------------------------------------|
----------------------------------------|


  E   Q     E   S   S  S  E     S  E    
----------------------------------15b--|
--L-------------------13-15br--13------|
-----12~----L--12h-14------------------|
---------------------------------------|
---------------------------------------|
---------------------------------------|


  X  H          E     S  E     S  S  T X     E   Q     S  E.    E    E.  T  T  
--L-15b--------15br----------------------|------------------------------------|
---------------------15-15br--13-15------|--13--------13-15b---15~--13---L-13-|
------------------------------------14-L-|------14----------------------------|
-----------------------------------------|------------------------------------|
-----------------------------------------|------------------------------------|
-----------------------------------------|------------------------------------|


   E     S  Q     S  E     S  Q     S  
--15br--12-15b------15br--12----------|
-----------------------------15b------|
--------------------------------------|
--------------------------------------|
--------------------------------------|
--------------------------------------|


   E     S  Q     S  E     S  E     S  E    
--15br--12-15b------15br--12-15br--12-15b--|
-------------------------------------------|
-------------------------------------------|
-------------------------------------------|
-------------------------------------------|
-------------------------------------------|


  X  H          E     S  E     S  S  T X     E   Q     S  E.    E    E.  T  T  
--L-15b--------15br----------------------|------------------------------------|
---------------------15-15br--13-15------|--13--------13-15b---15~--13---L-13-|
------------------------------------14-L-|------14----------------------------|
-----------------------------------------|------------------------------------|
-----------------------------------------|------------------------------------|
-----------------------------------------|------------------------------------|


   E     S  Q     S  E     S  Q     S  
--15br--12-15b------15br--12----------|
-----------------------------15b------|
--------------------------------------|
--------------------------------------|
--------------------------------------|
--------------------------------------|


   E     S  Q     S  E     S  E     S  E    
--15br--12-15b------15br--12-15br--12-15b--|
-------------------------------------------|
-------------------------------------------|
-------------------------------------------|
-------------------------------------------|
-------------------------------------------|


  X  H          E     S  E     S  S  T X     E   Q     S  E.    E    E.  T  T  
--L-15b--------15br----------------------|------------------------------------|
---------------------15-15br--13-15------|--13--------13-15b---15~--13---L-13-|
------------------------------------14-L-|------14----------------------------|
-----------------------------------------|------------------------------------|
-----------------------------------------|------------------------------------|
-----------------------------------------|------------------------------------|


   Q      Q     H          
-------------------------||
-------------------------||
--14S----(x)-------------||
-------------------------||
-------------------------||
-------------------------||









Guitar 2


     W                   E  S S E  S S S S S S S S S S  
E||-------------------|--------------------------------|
B||-------------------|--------------------------------|
G||-------------------|--2--x-x-2--x-2---2---2---2---2-|
D||-------------------|--3--x-x-3--x-3-3-3-3-3-3-3-3-3-|
A||-------------------|--3--x-x-3--x-3-3-3-3-3-3-3-3-3-|
E||-------------------|--------------------------------|


  E  S S E  S S S S S S S S S S    E  S S E  S S S S S E  S E   
--------------------------------|------------------------------|
--------------------------------|------------------------------|
--4--x-x-4--x-4---4---4---4---4-|--6--x-x-6--x-x-x-x-x-4--x-4--|
--5--x-x-5--x-5-5-5-5-5-5-5-5-5-|--7--x-x-7--x-x-x-x-x-5--x-5--|
--5--x-x-5--x-5-5-5-5-5-5-5-5-5-|--7--x-x-7--x-x-x-x-x-5--x-5--|
--------------------------------|------------------------------|


  E  S S E  S S S S S E  S E     E  S S E  S S S S S S S S S S  
------------------------------|--------------------------------|
------------------------------|--------------------------------|
--6--x-x-6--x-x-x-x-x-4--x-4--|--2--x-x-2--x-2---2---2---2---2-|
--7--x-x-7--x-x-x-x-x-5--x-5--|--3--x-x-3--x-3-3-3-3-3-3-3-3-3-|
--7--x-x-7--x-x-x-x-x-5--x-5--|--3--x-x-3--x-3-3-3-3-3-3-3-3-3-|
------------------------------|--------------------------------|


  E  S S E  S S S S S S S S S S    E  S S E  S S S S S E  S E   
--------------------------------|------------------------------|
--------------------------------|------------------------------|
--4--x-x-4--x-4---4---4---4---4-|--6--x-x-6--x-x-x-x-x-4--x-4--|
--5--x-x-5--x-5-5-5-5-5-5-5-5-5-|--7--x-x-7--x-x-x-x-x-5--x-5--|
--5--x-x-5--x-5-5-5-5-5-5-5-5-5-|--7--x-x-7--x-x-x-x-x-5--x-5--|
--------------------------------|------------------------------|


  E  S S E  S S S S S E  S E     E  S S E  S S S S S S S S S S  
------------------------------|--------------------------------|
------------------------------|--------------------------------|
--6--x-x-6--x-x-x-x-x-4--x-4--|--6--x-x-6--x-------------------|
--7--x-x-7--x-x-x-x-x-5--x-5--|--7--x-x-7--x-7-7-7-7-7-7-7-7-7-|
--7--x-x-7--x-x-x-x-x-5--x-5--|--7--x-x-7--x-7-7-7-7-7-7-7-7-7-|
------------------------------|--------------------------------|


  E  S S E  S S S S S S S S S S    E  S S E  S S S S S S S S S S  
--------------------------------|--------------------------------|
--------------------------------|--------------------------------|
--6--x-x-6--x-------------------|--6--x-x-6--x-------------------|
--7--x-x-7--x-7-7-7-7-7-7-7-7-7-|--7--x-x-7--x-7-7-7-7-7-7-7-7-7-|
--7--x-x-7--x-7-7-7-7-7-7-7-7-7-|--7--x-x-7--x-7-7-7-7-7-7-7-7-7-|
--------------------------------|--------------------------------|


  E  S S E  S S S S S S S S S S    E  S S E  S S S S S S S S S S  
--------------------------------|--------------------------------|
--------------------------------|--------------------------------|
--6--x-x-6--x-------------------|--2--x-x-2--x-2---2---2---2---2-|
--7--x-x-7--x-7-7-7-7-7-7-7-7-7-|--3--x-x-3--x-3-3-3-3-3-3-3-3-3-|
--7--x-x-7--x-7-7-7-7-7-7-7-7-7-|--3--x-x-3--x-3-3-3-3-3-3-3-3-3-|
--------------------------------|--------------------------------|


  E  S S E  S S S S S S S S S S    E  S S E  S S S S S E  S E   
--------------------------------|------------------------------|
--------------------------------|------------------------------|
--4--x-x-4--x-4---4---4---4---4-|--6--x-x-6--x-x-x-x-x-4--x-4--|
--5--x-x-5--x-5-5-5-5-5-5-5-5-5-|--7--x-x-7--x-x-x-x-x-5--x-5--|
--5--x-x-5--x-5-5-5-5-5-5-5-5-5-|--7--x-x-7--x-x-x-x-x-5--x-5--|
--------------------------------|------------------------------|


  E  S S E  S S S S S E  S E     E  S S E  S S S S S S S S S S  
------------------------------|--------------------------------|
------------------------------|--------------------------------|
--6--x-x-6--x-x-x-x-x-4--x-4--|--2--x-x-2--x-2---2---2---2---2-|
--7--x-x-7--x-x-x-x-x-5--x-5--|--3--x-x-3--x-3-3-3-3-3-3-3-3-3-|
--7--x-x-7--x-x-x-x-x-5--x-5--|--3--x-x-3--x-3-3-3-3-3-3-3-3-3-|
------------------------------|--------------------------------|


  E  S S E  S S S S S S S S S S    E  S S E  S S S S S E  S E   
--------------------------------|------------------------------|
--------------------------------|------------------------------|
--4--x-x-4--x-4---4---4---4---4-|--6--x-x-6--x-x-x-x-x-4--x-4--|
--5--x-x-5--x-5-5-5-5-5-5-5-5-5-|--7--x-x-7--x-x-x-x-x-5--x-5--|
--5--x-x-5--x-5-5-5-5-5-5-5-5-5-|--7--x-x-7--x-x-x-x-x-5--x-5--|
--------------------------------|------------------------------|


  E  S S E  S S S S S E  S E     E  S S E  S S S S S S S S S S  
------------------------------|--------------------------------|
------------------------------|--------------------------------|
--6--x-x-6--x-x-x-x-x-4--x-4--|--2--x-x-2--x-2---2---2---2---2-|
--7--x-x-7--x-x-x-x-x-5--x-5--|--3--x-x-3--x-3-3-3-3-3-3-3-3-3-|
--7--x-x-7--x-x-x-x-x-5--x-5--|--3--x-x-3--x-3-3-3-3-3-3-3-3-3-|
------------------------------|--------------------------------|


  E  S S E  S S S S S S S S S S    E  S S E  S S S S S E  S E   
--------------------------------|------------------------------|
--------------------------------|------------------------------|
--4--x-x-4--x-4---4---4---4---4-|--6--x-x-6--x-x-x-x-x-4--x-4--|
--5--x-x-5--x-5-5-5-5-5-5-5-5-5-|--7--x-x-7--x-x-x-x-x-5--x-5--|
--5--x-x-5--x-5-5-5-5-5-5-5-5-5-|--7--x-x-7--x-x-x-x-x-5--x-5--|
--------------------------------|------------------------------|


  E  S S E  S S S S S E  S E     E  S S E  S S S S S S S S S S  
------------------------------|--------------------------------|
------------------------------|--------------------------------|
--6--x-x-6--x-x-x-x-x-4--x-4--|--2--x-x-2--x-2---2---2---2---2-|
--7--x-x-7--x-x-x-x-x-5--x-5--|--3--x-x-3--x-3-3-3-3-3-3-3-3-3-|
--7--x-x-7--x-x-x-x-x-5--x-5--|--3--x-x-3--x-3-3-3-3-3-3-3-3-3-|
------------------------------|--------------------------------|


  E  S S E  S S S S S S S S S S    E  S S E  S E   S S  S S  S S S  
--------------------------------|----------------------------------|
--------------------------------|----------------------------------|
--4--x-x-4--x-4---4---4---4---4-|--6--x-x-6--x-5~------------------|
--5--x-x-5--x-5-5-5-5-5-5-5-5-5-|--7--x-x-7--x------------5h-7-5---|
--5--x-x-5--x-5-5-5-5-5-5-5-5-5-|--7--x-x-7--x-------5h-7--------7-|
--------------------------------|----------------------------------|


  E  S S E  S E   S S  S S  S S S    E  S S E  S S S S S S S S S S  
----------------------------------|--------------------------------|
----------------------------------|--------------------------------|
--6--x-x-6--x-5~------------------|--2--x-x-2--x-2---2---2---2---2-|
--7--x-x-7--x------------5h-7-5---|--3--x-x-3--x-3-3-3-3-3-3-3-3-3-|
--7--x-x-7--x-------5h-7--------7-|--3--x-x-3--x-3-3-3-3-3-3-3-3-3-|
----------------------------------|--------------------------------|


  E  S S E  S S S S S S S S S S    E  S S E  S E   S S  S S  S S S  
--------------------------------|----------------------------------|
--------------------------------|----------------------------------|
--4--x-x-4--x-4---4---4---4---4-|--6--x-x-6--x-5~------------------|
--5--x-x-5--x-5-5-5-5-5-5-5-5-5-|--7--x-x-7--x------------5h-7-5---|
--5--x-x-5--x-5-5-5-5-5-5-5-5-5-|--7--x-x-7--x-------5h-7--------7-|
--------------------------------|----------------------------------|


  E  S S E  S E   S S  S S  S S S    E  S S E  S S S S S S S S S S  
----------------------------------|--------------------------------|
----------------------------------|--------------------------------|
--6--x-x-6--x-5~------------------|--2--x-x-2--x-2---2---2---2---2-|
--7--x-x-7--x------------5h-7-5---|--3--x-x-3--x-3-3-3-3-3-3-3-3-3-|
--7--x-x-7--x-------5h-7--------7-|--3--x-x-3--x-3-3-3-3-3-3-3-3-3-|
----------------------------------|--------------------------------|


  E  S S E  S S S S S S S S S S    E  S S E  S E   S S  S S  S S S  
--------------------------------|----------------------------------|
--------------------------------|----------------------------------|
--4--x-x-4--x-4---4---4---4---4-|--6--x-x-6--x-5~------------------|
--5--x-x-5--x-5-5-5-5-5-5-5-5-5-|--7--x-x-7--x------------5h-7-5---|
--5--x-x-5--x-5-5-5-5-5-5-5-5-5-|--7--x-x-7--x-------5h-7--------7-|
--------------------------------|----------------------------------|


  E  S S E  S E   S S  S S  S S S    E  S S E  S S S S S S S S S S  
----------------------------------|--------------------------------|
----------------------------------|--------------------------------|
--6--x-x-6--x-5~------------------|--2--x-x-2--x-2---2---2---2---2-|
--7--x-x-7--x------------5h-7-5---|--3--x-x-3--x-3-3-3-3-3-3-3-3-3-|
--7--x-x-7--x-------5h-7--------7-|--3--x-x-3--x-3-3-3-3-3-3-3-3-3-|
----------------------------------|--------------------------------|


  E  S S E  S S S S S S S S S S    E  S S E  S E   S S  S S  S S S  
--------------------------------|----------------------------------|
--------------------------------|----------------------------------|
--4--x-x-4--x-4---4---4---4---4-|--6--x-x-6--x-5~------------------|
--5--x-x-5--x-5-5-5-5-5-5-5-5-5-|--7--x-x-7--x------------5h-7-5---|
--5--x-x-5--x-5-5-5-5-5-5-5-5-5-|--7--x-x-7--x-------5h-7--------7-|
--------------------------------|----------------------------------|


  E  S S E  S E   S S  S S  S S S    E  S S E  S S S S S S S  E.    
----------------------------------|--------------------------------|
----------------------------------|--------------------------------|
--6--x-x-6--x-5~------------------|--6--x-x-6--x-------------------|
--7--x-x-7--x------------5h-7-5---|--7--x-x-7--x-7-7-7-7-7-7-10S---|
--7--x-x-7--x-------5h-7--------7-|--7--x-x-7--x-7-7-7-7-7-7-12S---|
----------------------------------|--------------------------------|


  E  S S E  S S S S S S S  E.      E  S S E  S S S S S S S  E.    
--------------------------------|--------------------------------|
--------------------------------|--------------------------------|
--6--x-x-6--x-------------------|--6--x-x-6--x-------------------|
--7--x-x-7--x-7-7-7-7-7-7-10S---|--7--x-x-7--x-7-7-7-7-7-7-10S---|
--7--x-x-7--x-7-7-7-7-7-7-12S---|--7--x-x-7--x-7-7-7-7-7-7-12S---|
--------------------------------|--------------------------------|


  E  S S E  S S S S S S S S S S    E  S S E  S S S S S S S S S S  
--------------------------------|--------------------------------|
--------------------------------|--------------------------------|
--6--x-x-6--x-------------------|--2--x-x-2--x-2---2---2---2---2-|
--7--x-x-7--x-7-7-7-7-7-7-7-7-7-|--3--x-x-3--x-3-3-3-3-3-3-3-3-3-|
--7--x-x-7--x-7-7-7-7-7-7-7-7-7-|--3--x-x-3--x-3-3-3-3-3-3-3-3-3-|
--------------------------------|--------------------------------|


  E  S S E  S S S S S S S S S S    E  S S E  S S S S S E  S E   
--------------------------------|------------------------------|
--------------------------------|------------------------------|
--4--x-x-4--x-4---4---4---4---4-|--6--x-x-6--x-x-x-x-x-4--x-4--|
--5--x-x-5--x-5-5-5-5-5-5-5-5-5-|--7--x-x-7--x-x-x-x-x-5--x-5--|
--5--x-x-5--x-5-5-5-5-5-5-5-5-5-|--7--x-x-7--x-x-x-x-x-5--x-5--|
--------------------------------|------------------------------|


  E  S S E  S S S S S E  S E     E.   S  H.            
------------------------------|-----------------------|
------------------------------|-----------------------|
--6--x-x-6--x-x-x-x-x-4--x-4--|-----------------------|
--7--x-x-7--x-x-x-x-x-5--x-5--|--7---(x)--------------|
--7--x-x-7--x-x-x-x-x-5--x-5--|--7---(x)--------------|
------------------------------|--5---(x)--------------|


  E  S S E  S S S S S S S S S S    E  S S E  S S S S S S S S S S  
--------------------------------|--------------------------------|
--------------------------------|--------------------------------|
--2--x-x-2--x-2---2---2---2---2-|--4--x-x-4--x-4---4---4---4---4-|
--3--x-x-3--x-3-3-3-3-3-3-3-3-3-|--5--x-x-5--x-5-5-5-5-5-5-5-5-5-|
--3--x-x-3--x-3-3-3-3-3-3-3-3-3-|--5--x-x-5--x-5-5-5-5-5-5-5-5-5-|
--------------------------------|--------------------------------|


  E  S S E  S S S S S E  S E     E  S S E  S S S S S E  S E   
------------------------------|------------------------------|
------------------------------|------------------------------|
--6--x-x-6--x-x-x-x-x-4--x-4--|--6--x-x-6--x-x-x-x-x-4--x-4--|
--7--x-x-7--x-x-x-x-x-5--x-5--|--7--x-x-7--x-x-x-x-x-5--x-5--|
--7--x-x-7--x-x-x-x-x-5--x-5--|--7--x-x-7--x-x-x-x-x-5--x-5--|
------------------------------|------------------------------|


  E  S S E  S S S S S S S S S S    E  S S E  S S S S S S S S S S  
--------------------------------|--------------------------------|
--------------------------------|--------------------------------|
--2--x-x-2--x-2---2---2---2---2-|--4--x-x-4--x-4---4---4---4---4-|
--3--x-x-3--x-3-3-3-3-3-3-3-3-3-|--5--x-x-5--x-5-5-5-5-5-5-5-5-5-|
--3--x-x-3--x-3-3-3-3-3-3-3-3-3-|--5--x-x-5--x-5-5-5-5-5-5-5-5-5-|
--------------------------------|--------------------------------|


  E  S S E  S S S S S E  S E     E  S S E  S S S S S E  S E   
------------------------------|------------------------------|
------------------------------|------------------------------|
--6--x-x-6--x-x-x-x-x-4--x-4--|--6--x-x-6--x-x-x-x-x-4--x-4--|
--7--x-x-7--x-x-x-x-x-5--x-5--|--7--x-x-7--x-x-x-x-x-5--x-5--|
--7--x-x-7--x-x-x-x-x-5--x-5--|--7--x-x-7--x-x-x-x-x-5--x-5--|
------------------------------|------------------------------|


  E  S S E  S S S S S S S S S S    E  S S E  S S S S S S S S S S  
--------------------------------|--------------------------------|
--------------------------------|--------------------------------|
--2--x-x-2--x-2---2---2---2---2-|--4--x-x-4--x-4---4---4---4---4-|
--3--x-x-3--x-3-3-3-3-3-3-3-3-3-|--5--x-x-5--x-5-5-5-5-5-5-5-5-5-|
--3--x-x-3--x-3-3-3-3-3-3-3-3-3-|--5--x-x-5--x-5-5-5-5-5-5-5-5-5-|
--------------------------------|--------------------------------|


  E  S S E  S S S S S E  S E     E  S S E  S S S S S E  S E   
------------------------------|------------------------------|
------------------------------|------------------------------|
--6--x-x-6--x-x-x-x-x-4--x-4--|--6--x-x-6--x-x-x-x-x-4--x-4--|
--7--x-x-7--x-x-x-x-x-5--x-5--|--7--x-x-7--x-x-x-x-x-5--x-5--|
--7--x-x-7--x-x-x-x-x-5--x-5--|--7--x-x-7--x-x-x-x-x-5--x-5--|
------------------------------|------------------------------|


  E  S S E  S S S S S S S S S S    E  S S E  S S S S S S S S S S  
--------------------------------|--------------------------------|
--------------------------------|--------------------------------|
--2--x-x-2--x-2---2---2---2---2-|--4--x-x-4--x-4---4---4---4---4-|
--3--x-x-3--x-3-3-3-3-3-3-3-3-3-|--5--x-x-5--x-5-5-5-5-5-5-5-5-5-|
--3--x-x-3--x-3-3-3-3-3-3-3-3-3-|--5--x-x-5--x-5-5-5-5-5-5-5-5-5-|
--------------------------------|--------------------------------|


  E  S S E  S S S S S E  S E     E  S S E  S S S S S E  S E   
------------------------------|------------------------------|
------------------------------|------------------------------|
--6--x-x-6--x-x-x-x-x-4--x-4--|--6--x-x-6--x-x-x-x-x-4--x-4--|
--7--x-x-7--x-x-x-x-x-5--x-5--|--7--x-x-7--x-x-x-x-x-5--x-5--|
--7--x-x-7--x-x-x-x-x-5--x-5--|--7--x-x-7--x-x-x-x-x-5--x-5--|
------------------------------|------------------------------|


  E  S S E  S S S S S S S S S S    E  S S E  S S S S S S S S S S  
--------------------------------|--------------------------------|
--------------------------------|--------------------------------|
--2--x-x-2--x-2---2---2---2---2-|--4--x-x-4--x-4---4---4---4---4-|
--3--x-x-3--x-3-3-3-3-3-3-3-3-3-|--5--x-x-5--x-5-5-5-5-5-5-5-5-5-|
--3--x-x-3--x-3-3-3-3-3-3-3-3-3-|--5--x-x-5--x-5-5-5-5-5-5-5-5-5-|
--------------------------------|--------------------------------|


  E  S S E  S S S S S E  S E     E  S S E  S S S S S E  S E   
------------------------------|------------------------------|
------------------------------|------------------------------|
--6--x-x-6--x-x-x-x-x-4--x-4--|--6--x-x-6--x-x-x-x-x-4--x-4--|
--7--x-x-7--x-x-x-x-x-5--x-5--|--7--x-x-7--x-x-x-x-x-5--x-5--|
--7--x-x-7--x-x-x-x-x-5--x-5--|--7--x-x-7--x-x-x-x-x-5--x-5--|
------------------------------|------------------------------|


  E  S S E  S S S S S S S S S S    E  S S E  S S S S S S S S S S  
--------------------------------|--------------------------------|
--------------------------------|--------------------------------|
--2--x-x-2--x-2---2---2---2---2-|--4--x-x-4--x-4---4---4---4---4-|
--3--x-x-3--x-3-3-3-3-3-3-3-3-3-|--5--x-x-5--x-5-5-5-5-5-5-5-5-5-|
--3--x-x-3--x-3-3-3-3-3-3-3-3-3-|--5--x-x-5--x-5-5-5-5-5-5-5-5-5-|
--------------------------------|--------------------------------|


  E  S S E  S S S S S E  S E     E  S S E  S S S S S E  S E   
------------------------------|------------------------------|
------------------------------|------------------------------|
--6--x-x-6--x-x-x-x-x-4--x-4--|--6--x-x-6--x-x-x-x-x-4--x-4--|
--7--x-x-7--x-x-x-x-x-5--x-5--|--7--x-x-7--x-x-x-x-x-5--x-5--|
--7--x-x-7--x-x-x-x-x-5--x-5--|--7--x-x-7--x-x-x-x-x-5--x-5--|
------------------------------|------------------------------|


  Q      Q     H          
------------------------||
------------------------||
------------------------||
--7S----(x)-------------||
--7S----(x)-------------||
--5S----(x)-------------||




Duration Legend
---------------
W - whole
H - half
Q - quarter
E - 8th
S - 16th
T - 32nd
X - 64th
. - note dotted
|-n-|  - n-tuplets


Tablature Legend
----------------
L - tied note
x - dead note
g - grace note
(n) - ghost note
> - accentuded note
NH - natural harmonic
AH - artificial harmonic
TH - tapped harmonic
SH - semi harmonic
PH - pitch harmonic
h - hammer on
p - pull off
b - bend
br - bendRelease
pb - preBend
pbr - preBendRelease
brb - bendReleaseBend
\n/ - tremolo bar dip
\n - tremolo bar dive
-/n - tremolo bar Release up
/n\ - tremolo bar inverted dip
/n - tremolo bar return
-\n - tremolo bar Release down
S - shift slide
s - legato slide
/ -  slide into from below or out of upwards
\ -  slide into from above or out of downwards
~ - vibrato
W - wide vibrato
tr - trill
TP - tremolo picking
T - tapping
S - slap
P - pop
< - fade in
^ - brush up
v - brush down





Comments


Popular Black Oak Arkansas tabs & chords
Fever In My Mind Bass Tabs
Memories At The Window Bass Tabs
Jim Dandy Chords
Backdoor Man Tabs
Happy Hooker Tabs
Hot Rod Tabs
Memories At The Window Tabs


Song lyrics



↑ Back to top | Tablatures and chords are parodies/interpretations of the original songs. You may use it for private study, scholarship, research or language learning purposes only
© 2014 AZChords.com Contact us | Privacy policy | DMCA | Add/correct tabs | Request tabs | Top 50 tabs