» » »

Black Mountain, Radiant Hearts Tabs (ver.1)

Artists:  A B C D E F G H I J K L M N O P Q R S T U V W X Y Z # 

Radiant Hearts Tabs (ver.1)

Black Mountain Tabs
Rating:
0/5 (0 votes)
Radiant Hearts lessons Tabs too difficult? Try these video lessons and learn fast
                

Tuning: Standard EADGBe, no capo

*********************************************************************

INTRO

   Db                            Dbm
e|--------------|--------------|-----------------------------|
B|-----6-----6--|-----6-----6--|-----5-----5--|-----5-----5--|
G|--6---6-6---6-|--6---6-6---6-|--6---6-6---6-|--6---6-6---6-|
D|---6-----6----|---6-----6----|---6-----6----|---6-----6----|
A|-4--4--4--4---|-4--4--4--4---|-4--4--4--4---|-4--4--4--4---|
E|--------------|--------------|-----------------------------|

   A              Am             E              Ab7
e|--------------|--------------|--------------|--------------|
B|-----5-----5--|-----5-----5--|-----0-----0--|--------------|
G|--6---6-6---6-|--5---5-5---5-|--1---1-1---1-|-----5--------|
D|---7-----7----|---7-----7----|---2-----2----|--4---4-------|
A|--------------|--------------|--------------|---6---6------|
E|-5--5--5--5---|-5--5--5--5---|-0--0--0--0---|-4--4--4------|

*********************************************************************

VERSE 1

Children play softly around the explosions
Tearing up shrapnel, wrapped up in clothing
And I am left waiting for the doctor to sell
Ten thousand one hundreths, it's all just a blur

   Db                            Dbm
e|--------------|--------------|-----------------------------|
B|-----6-----6--|-----6-----6--|-----5-----5--|-----5-----5--|
G|--6---6-6---6-|--6---6-6---6-|--6---6-6---6-|--6---6-6---6-|
D|---6-----6----|---6-----6----|---6-----6----|---6-----6----|
A|-4--4--4--4---|-4--4--4--4---|-4--4--4--4---|-4--4--4--4---|
E|--------------|--------------|-----------------------------|

   A              Am             E              Ab7
e|--------------|--------------|--------------|--------------|
B|-----5-----5--|-----5-----5--|-----0-----0--|--------------|
G|--6---6-6---6-|--5---5-5---5-|--1---1-1---1-|-----5-----5--|
D|---7-----7----|---7-----7----|---2-----2----|--4---4-4---4-|
A|--------------|--------------|--------------|---6-----6----|
E|-5--5--5--5---|-5--5--5--5---|-0--0--0--0---|-4--4--4--4---|

Tear at the sheets but there's no one alive
The static rings true and your head can't survive
Alone in your castle on the 54th floor
Can't you hear me calling your name?

**(linger on the Ab7 for an extra bar after this)

*********************************************************************

CHORUS

Yet, the hardest truth to believe
That all is worth, and all that is gained
Could never replace the most beautiful things
That brought you so close to my heart

   Gbm            E              B              Dbm
e|--------------|--------------|--------------|--------------|
B|-----2-----2--|-----0-----0--|--------------|-----5-----5--|
G|--2---2-2---2-|--1---1-1---1-|-----4-----4--|--6---6-6---6-|
D|---4-----4----|---2-----2----|--4---4-4---4-|---6-----6----|
A|--------------|--------------|---6-----6----|-4--4--4--4---|
E|-2--2--2--2---|-0--0--0--0---|-7--7--7--7---|--------------|

   A              Gb             E              Ab7
e|--------------|--------------|--------------|--------------|
B|-----5-----5--|-----2-----2--|-----0-----0--|--------------|
G|--6---6-6---6-|--3---3-3---3-|--1---1-1---1-|-----5-----5--|
D|---7-----7----|---4-----4----|---2-----2----|--4---4-4---4-|
A|--------------|--------------|--------------|---6-----6----|
E|-5--5--5--5---|-2--2--2--2---|-0--0--0--0---|-4--4--4--4---|

**(again, linger on Ab7 for an extra bar)


*********************************************************************

VERSE 2 (same chord progression as Verse 1)

Oh heaven's the place where you're no longer waiting
For someone to say that this day turned to poison
Roses won't make her feel better tonight
Now look what you've done to the sky

Brassy like queens, mad men in corsets
Paul is waiting for someone to get bent
Chasing the arrows, they swoon while they fly
Can't you hear me calling your name?

*********************************************************************

CHORUS (same progression as last chorus)

Yet, the hardest truth to believe
That all is worth, and all that is gained
Could never replace the most beautiful things
That brought you so close to my heart

People wandering the same damn old plains
Waiting for wisdom to shout out their names
But never exchanging a look or a thrill
Would shoot you straight dead in the heart

Of beautiful moments...

*********************************************************************

INTERLUDE

   Dbm                           A              Am
e|--------------|--------------|--------------|--------------|
B|-----5-----5--|-----5-----5--|-----5-----5--|-----5-----5--|
G|--6---6-6---6-|--6---6-6---6-|--6---6-6---6-|--5---5-5---5-|
D|---6-----6----|---6-----6----|---7-----7----|---7-----7----|
A|-4--4--4--4---|-4--4--4--4---|--------------|--------------|
E|--------------|--------------|-5--5--5--5---|-5--5--5--5---|

   E              Ab7            Gbm            E
e|--------------|--------------|--------------|--------------|
B|-----0-----0--|--------------|-----2-----2--|-----0-----0--|
G|--1---1-1---1-|-----5-----5--|--2---2-2---4-|--1---1-1---1-|
D|---2-----2----|--4---4-4---4-|---4-----4----|---2-----2----|
A|--------------|---6-----6----|--------------|--------------|
E|-0--0--0--0---|-4--4--4--4---|-2--2--2--2---|-0--0--0--0---|

   B              Dbm            A              Gb             Ab7
e|--------------|--------------|--------------|--------------|-------------|
B|--------------|-----5-----5--|-----5-----5--|-----2-----2--|-------------|
G|-----4-----4--|--6---6-6---6-|--6---6-6---6-|--3---3-3---3-|-------------|
D|--4---4-4---4-|---6-----6----|---7-----7----|---4-----4----|-------------|
A|---6-----6----|-4--4--4--4---|--------------|--------------|-------------|
E|-7--7--7--7---|--------------|-5--5--5--5---|-2--2--2--2---|-4-----------|

*********************************************************************

FINAL VERSE (same progression as verses)

Lastly, we sing to the senses of order
A mother lay waiting for a children to comfort
That the sky belittered with radiant hearts
Waiting to guide you back home...

*********************************************************************
            
Submit corrections

comments powered by Disqus
↑ Back to top | Black Mountain Tabs for Radiant Hearts. Lyrics for acoustic guitar and electric guitar. Tablatures and chords are parodies/interpretations of the original songs. You may use it for private study, scholarship, research or language learning purposes only