>
 >
Waiting Just For You

Waiting Just For You Guitar Tabs

Blackmores Night - Waiting Just For You chords, tabs, tablatures, lyrics

Guitar lessons | Add/correct | Request | Top 50 tabs Artists:  A B C D E F G H I J K L M N O P Q R S T U V W X Y Z 0-9

Waiting Just For You Guitar Tabs – Blackmores Night

CD, Sheet music, Poster

Do you like Waiting Just For You? Share with your friends now
Bass TabsTabs
+++++++++++++++++++++++++++++++++++++++++++
| Blackmore's Night- Waiting Just For You |
+++++++++++++++++++++++++++++++++++++++++++

Tuning: EADGBe

Beautiful song, the ex Deep Purple guitarist Ritchie Blackmore
playing acoustics ;)
I dedicate it to my only love Hayley!

Key:

| h: Hammer On     |
| p: Pull Off      |
| ~: Let Note Ring |
| x: Mute          |
| /: Slide Up      |
| \: Slide Down    |

Intro

Guitar 1
1.
e|-------------------------------------------------------|
B|-1~---1/3~---1-3-5~---5/6~-5h6p5-3~---1-3-1-3-3~--1-1~-|
G|-------------------------------------------------------|
D|-------------------------------------------------------|
A|-------------------------------------------------------|
E|-------------------------------------------------------|

Guitar 2
2.
e|-------------------------------------------------------------------------0~----|
B|-------1-------1-------1-------1-------1-------1-------1-------1-------1-------|
G|-----0-------0-------0-------0-------0-------0-------0-------0-------0---------|
D|---2-------0-------2-------0---------------0-------2-------2-------2-----------|
A|-3-------2-------0-----------------3-------------3-------3-------3-------------|
E|-------------------------3-------1-------3-------------------------------------|

Verse, from here and on there's only one guitar

"They say that its always darkest right before the dawn..."
3.
e|-----------------------------------------------------------------|
B|-------1-------1-------1-------1---------------1-------0-------0-|
G|-----0-------0-------0-------0-----0---0-----0-------0-------0---|
D|---2-------0-------2-------0---------------2-------0-------0-----|
A|-3-------2-------0---------------3---2---0---------------2-------|
E|-------------------------3-----------------------3---------------|

"They say that I must be strong just to carry on..."
4.
e|-------------------------------------------------------------------------0-------|
B|-------1-------1-------1-------1-------1-------1-------1-------1-------1---1-----|
G|-----0-------0-------0-------0-------0-------0-------0-------0-------0-------0---|
D|---2-------0-------2-------0---------------0-------2-------2-------2-----------2-|
A|-3-------2-------0-----------------3-------------3-------3-------3---------------|
E|-------------------------3-------1-------3---------------------------------------|

"But they dont know that I would wait my whole lifetime through..."
5.
e|-----------------------------------------------------------------|
B|-------1-------1-------1-------1---------------1-------0-------0-|
G|-----0-------0-------0-------0-----0---0-----0-------0-------0---|
D|---2-------0-------2-------0---------------2-------0-------0-----|
A|-3-------2-------0---------------3---2---0---------------2-------|
E|-------------------------3-----------------------3---------------|

"Because you know, my love, that Id be waiting just for you..."
6.
e|-------------------------------------------------------------------------0-------|
B|-------1-------1-------1-------1-------1-------1-------1-------1-------1---1-----|
G|-----0-------0-------0-------0-------0-------0-------0-------0-------0-------0---|
D|---2-------0-------2-------0---------------0-------2-------2-------2-----------2-|
A|-3-------2-------0-----------------3-------------3-------3-------3---------------|
E|-------------------------3-------1-------3---------------------------------------|

Chorus 

"There you stood amazing, shining for the whole world to see..."
7.
e|-----------------------------------------------------------------|
B|-------1---------------0-------0---------------1-------0-------0-|
G|-----0---------2-----0-------0-----0---0-----0-------0-------0---|
D|---2-------0-4-----0-------0---------------2-------0-------0-----|
A|-3-------------------------------3---2---0---------------2-------|
E|---------2-------3-------1-----------------------3---------------|

"And I knew an angel have been sent to watch over me..."
8.
e|---------------------------------------------------------------------------------|
B|-------1-------1-------0-------0---------------1-------0-------0---------0-------|
G|-----0-------2-------0-------0-----0---0-----0-------0-------0---------0---0-----|
D|---2-----0-4-------0-------0---------------2-------0-------0---------0-------0---|
A|-3-------------------------------3---2---0---------------2---------2-----------2-|
E|-----------------3-------1-----------------------3---------------3---------------|

Verse 

"So I'll be here waiting..."
9.
e|-----------------------------------------------------------------|
B|-------1-------1-------1-------1---------------1-------0-------0-|
G|-----0-------0-------0-------0-----0---0-----0-------0-------0---|
D|---2-------0-------2-------0---------------2-------0-------0-----|
A|-3-------2-------0---------------3---2---0---------------2-------|
E|-------------------------3-----------------------3---------------|

"Because I know, my love, that you do love me too..."
10.
e|-------------------------------------------------------------------------0-------|
B|-------1-------1-------1-------1-------1-------1-------1-------1-------1---1-----|
G|-----0-------0-------0-------0-------0-------0-------0-------0-------0-------0---|
D|---2-------0-------2-------0---------------0-------2-------2-------2-----------2-|
A|-3-------2-------0-----------------3-------------3-------3-------3---------------|
E|-------------------------3-------1-------3---------------------------------------|

1:36

11.   F    G 
e|----1----3----|
B|----1----0----|
G|----1----0----|
D|----3----0----|
A|----3----2----|
E|----1----3----|

Verse (Only one guitar

"They say that its always darkest right before the dawn..."
12.   C    B    A    G    C  B  A    G    B 
e|----0---------0----3----0-----0----3---------|
B|----1----1----1----0----1--1--1----0----1----|
G|----0----0----0----0----0--0--0----0----0----|
D|----2----0----2----0----2--0--2----0----0----|
A|----3----2----0----2----3--2--0----2----2----|
E|-------------------3---------------3---------|

"They say that I must be strong just to carry on..."
13.   C    B    A    G    F    G    C    C
e|----0---------0----3----1----3----0----0----|
B|----1----1----1----0----1----0----1----1----|
G|----0----0----0----0----1----0----0----0----|
D|----2----0----2----0----3----0----2----2----|
A|----3----2----0----2----3----2----3----3----|
E|-------------------3----1----3--------------|

"They dont know that I would wait my whole lifetime through..."
14.   C    B    A    G    C  B  A    G    B 
e|----0---------0----3----0-----0----3---------|
B|----1----1----1----0----1--1--1----0----1----|
G|----0----0----0----0----0--0--0----0----0----|
D|----2----0----2----0----2--0--2----0----0----|
A|----3----2----0----2----3--2--0----2----2----|
E|-------------------3---------------3---------|

"Because you know, my love, that Id be waiting just for you..."
15.   C    B    A    G    F    G    C    C
e|----0---------0----3----1----3----0----0----|
B|----1----1----1----0----1----0----1----1----|
G|----0----0----0----0----1----0----0----0----|
D|----2----0----2----0----3----0----2----2----|
A|----3----2----0----2----3----2----3----3----|
E|-------------------3----1----3--------------|

Chorus 

"There you stood amazing, shining for the whole world to see..."
16.   C    D    G    F    C  B  A    G    G
e|----0---------3----1----0-----0----3----3----|
B|----1----7----0----1----1--1--1----0----0----|
G|----0----7----0----1----0--0--0----0----0----|
D|----2----4----0----3----2--0--2----0----0----|
A|----3----5----2----3----3--2--0----2----2----|
E|--------------3----1---------------3----3----|

"And I knew an angel had been sent to watch over me..."
17.   C    D    G    F    C  B  A    G    G G
e|----0---------3----1----0-----0----3----3-3----|
B|----1----7----0----1----1--1--1----0----0-0----|
G|----0----7----0----1----0--0--0----0----0-0----|
D|----2----4----0----3----2--0--2----0----0-0----|
A|----3----5----2----3----3--2--0----2----2-2----|
E|--------------3----1---------------3----3-3----|

Verse

"So I'll be here waiting..."
18.
e|-----------------------------------------------------------------|
B|-------1-------1-------1-------1---------------1-------0-------0-|
G|-----0-------0-------0-------0-----0---0-----0-------0-------0---|
D|---2-------0-------2-------0---------------2-------0-------0-----|
A|-3-------2-------0---------------3---2---0---------------2-------|
E|-------------------------3-----------------------3---------------|

"Because I know, my love, that you do love me too..."
19.
e|---------------------------------------------------------0-------------|
B|-------1-------1-------1-------1-------1-------1-------1---1-----------|
G|-----0-------0-------0-------0-------0-------0-------0-------0---------|
D|---2-------0-------2-------0---------------0-------2-----------2-------|
A|-3-------2-------0-----------------3-------------3---------------3~----|
E|-------------------------3-------1-------3-----------------------------|

Lyrics:

They say that it's always darkest right before the dawn
They say that I must be strong just to carry on
But they don't know that I would wait my whole lifetime through
Because you know, my love, that I'd be waiting just for you…

There you stood, amazing shining for the whole world to see
And I knew an angel had been sent to watch over me…

So I'll be here waiting, hoping, dreaming, loving you
Because I know, my love, that you do love me too...

+++++++++++++++++++++++++++++++++
| RaiLeff                       |
+++++++++++++++++++++++++++++++++





Comments


Popular Blackmores Night tabs & chords
Clock Ticks On Chords
Home Again Chords
Now And Then Chords
Streets Of London Chords
Fayre Thee Well 1 Tabs
The Spirit Flies Tabs
Under A Violet Moon Tabs
Faerie Queen Ukulele
Fools Gold Ukulele
Loreley Ukulele


Song lyrics



↑ Back to top | Tablatures and chords are parodies/interpretations of the original songs. You may use it for private study, scholarship, research or language learning purposes only
© 2014 AZChords.com Contact us | Privacy policy | DMCA | Add/correct tabs | Request tabs | Top 50 tabs