» » »

Unqest Grave Tabs (ver.1)

Artists:  A B C D E F G H I J K L M N O P Q R S T U V W X Y Z # 

Unqest Grave Tabs (ver.1)

Blackmores Night
Rating:
0/5 (0 votes)

Hard to play? Try these video lessons and learn fast.
                
E||--1--0------------------|-----0--1--0--1----3----|
B||--------3----3----3--1--|--3----------------3----|
G||------------------------|-------------------3----|
D||--------3---------2-----|--------0---------------|
A||------------------------|------------------------|
E||------------------------|------------------------|
                                                  
--1--3--5----5--5--3-----|-----------------------|
--------6-------------6--|--3----1---------------|
--------7----------------|-------2----------2----|
--------0----------------|-------2-------2-------|
-------------------------|-------0----0----------|
-------------------3-----|-----------------------|
                                                  
--1--0------------------|-----0--1--0--1----3----|
--------3----3----3--1--|--3----------------3----|
------------------------|-------------------3----|
--------3---------2-----|--------0---------------|
------------------------|------------------------|
------------------------|------------------------|
                                                    
--1--3--5----5--5--3-----|-------------------------|
--------6-------------6--|--3-----3----------------|
--------7----------------|-----5-----2-------------|
--------0----------------|--------0-----3--2--0----|
-------------------------|-------------------------|
-------------------3-----|-------------------------|
                                                   
----------8-----8----5-----|-------3----3----5----|
--10--11--10---------6--8--|--6----1---------5----|
----------10---------7-----|-----------------5----|
---------------------0-----|-------2--------------|
----------8----------------|-------3--------------|
---------------------------|----------------------|
                                                
--5-----1--------------|-----------------------|
-----8--3----3----3----|-------1---------------|
--------2--------------|--2----2----------2----|
--------0---------0----|-------2-------2-------|
-----------------------|-------0----0----------|
-----------------------|-----------------------|
                                                  
--1--0------------------|-----0--1--0--1----3----|
--------3----3----3--1--|--3----------------3----|
------------------------|-------------------3----|
--------3---------2-----|--------0---------------|
------------------------|------------------------|
------------------------|------------------------|
                                                     
--1--3--5----5--5--3-----|-------------------------||
--------6-------------6--|--3-----3----------------||
--------7----------------|-----5-----2-------------||
--------0----------------|--------0-----3--2--0----||
-------------------------|-------------------------||
-------------------3-----|-------------------------||
            
Hard to play? Try these video lessons and learn fast. | Correct




comments powered by Disqus
↑ Back to top | Tablatures and chords are parodies/interpretations of the original songs. You may use it for private study, scholarship, research or language learning purposes only