>
 >
Under A Violet Moon

Under A Violet Moon Bass Tabs

Blackmores Night - Under A Violet Moon chords, tabs, tablatures, lyrics

Guitar lessons | Add/correct | Request | Top 50 tabs Artists:  A B C D E F G H I J K L M N O P Q R S T U V W X Y Z 0-9

Under A Violet Moon Bass Tabs – Blackmores Night

CD, Sheet music, Poster

Do you like Under A Violet Moon? Share with your friends now
Bass TabsBass Tabs v2ChordsTabsUkulele
                              UNDER A VIOLET MOON                               


BASS
                                                               
G||--------------------|-------------------|------------------|
D||--------------------|-------------------|------------------|
A||--------------------|--3----------------|------------------|
E||--------------3--6--|-------------------|------------------|


                                                                               
------------------|-----------------3--|--5----------------|------------------|
------------------|--------------5-----|-------------------|------------------|
------------------|--------------------|-------------------|------------------|
------------------|--------------------|-------------------|------------------|


                                                                                
------------------|--------------------|-------------------|-------------------|
------------------|--------------------|-------------------|-------------------|
------------------|--------------------|--3----------------|--1----------------|
------------------|--------------3--5--|-------------------|-------------------|


                                                            
-------------------|-------------------|-------------------|
-------------------|-------------------|-------------------|
--3----------------|--1----------------|--3----------------|
-------------------|-------------------|-------------------|


                                                              
--------------------|--------------------|-------------------|
--------------------|--------------------|-------------------|
--1-----------------|-----------1--------|--3----------------|
-----------3--------|--4-----------------|-------------------|


                                                                                
------------------|--5----------------|--------------------|-------------------|
------------------|-------------------|--------------------|-------------------|
------------------|-------------------|--------------------|--3----------------|
------------------|-------------------|--------------3--6--|-------------------|


                                                                                
-------------------|-------------------|-------------------|-------------------|
-------------------|-------------------|-------------------|-------------------|
--1----------------|--3----------------|--1----------------|--3----------------|
-------------------|-------------------|-------------------|-------------------|


                                                              
--------------------|--------------------|-------------------|
--------------------|--------------------|-------------------|
--1-----------------|-----------1--------|--3----------------|
-----------3--------|--4-----------------|-------------------|


                                                                               
------------------|--5----------------|-------------------|-------------------|
------------------|-------------------|-------------------|-------------------|
------------------|-------------------|-------------------|--3----------------|
------------------|-------------------|--------------3----|-------------------|


                                                             
--------------------|-------------------|-------------------|
--------------------|-------------------|-------------------|
-----------1--------|--1----------------|--3----------------|
--1-----------------|-------------------|-------------------|


                                                               
--------------------|--------------------|--------------------|
--------------------|--------------------|--------------------|
--------------------|-----------3--------|--3-----------------|
--4--------3--------|--1-----------------|-----------3--------|


                                                             
-------------------|-----------------3--|--5----------------|
-------------------|--------------5-----|-------------------|
--3----------------|--------------------|-------------------|
-------------------|--------------------|-------------------|


                                                             
--------------------|-------------------|-------------------|
--------------------|-------------------|-------------------|
--------------------|--3----------------|--1----------------|
--------------3--6--|-------------------|-------------------|


                                                            
-------------------|-------------------|-------------------|
-------------------|-------------------|-------------------|
--3----------------|--1----------------|--3----------------|
-------------------|-------------------|-------------------|


                                                              
--------------------|--------------------|-------------------|
--------------------|--------------------|-------------------|
--1-----------------|-----------1--------|--3----------------|
-----------3--------|--4-----------------|-------------------|


                                                             
--------------------|-------------------|-------------------|
--------------------|-------------------|-------------------|
--------------------|--3----------------|--1----------------|
--------------3--6--|-------------------|-------------------|


                                                            
-------------------|-------------------|-------------------|
-------------------|-------------------|-------------------|
--3----------------|--1----------------|--3----------------|
-------------------|-------------------|-------------------|


                                                              
--------------------|--------------------|-------------------|
--------------------|--------------------|-------------------|
--1-----------------|-----------1--------|--3----------------|
-----------3--------|--4-----------------|-------------------|


                                                           
-------------------|--5----------------|------------------|
--------------5----|-------------------|------------------|
-------------------|-------------------|------------------|
-------------------|-------------------|------------------|


                                                                    
----------------------|---------------------|----------------------|
----------------------|---------------------|----------------------|
--3------3--3------3--|------------1--------|--1------1--1------1--|
----------------------|--1------1-----------|----------------------|


                                                                     
----------------------|----------------------|----------------------|
----------------------|----------------------|----------------------|
--3------3--3------3--|----------------------|------------3------3--|
----------------------|--4------4--3------3--|--1------1------------|


                                                                    
----------------------|---------------------|----------------------|
----------------------|---------------------|----------------------|
--3------3------------|--3------3--3--------|--3------3--3------3--|
------------3------3--|---------------------|----------------------|


                                                                    
---------------------|----------------------|----------------------|
---------------------|----------------------|----------------------|
------------1--------|--1------1--1------1--|--3------3--3------3--|
--1------1-----------|----------------------|----------------------|


                                                                     
----------------------|----------------------|----------------------|
----------------------|----------------------|----------------------|
----------------------|------------3------3--|--3------3------------|
--4------4--3------3--|--1------1------------|------------3------3--|


                                                                      
-----------------------|----------------------|----------------------|
-----------------------|----------------------|----------------------|
--3------3--3----3--5--|--6------6--6------6--|----------------------|
-----------------------|----------------------|--6------6--6------6--|


                                                                     
----------------------|----------------------|----------------------|
----------------------|----------------------|----------------------|
--3------3--3------3--|----------------------|--6------6--6------6--|
----------------------|--6------6--3------3--|----------------------|


                                                                    
----------------------|----------------------|---------------------|
----------------------|----------------------|---------------------|
----------------------|--3------3------------|--3------3--3--------|
--6------6--6------6--|------------6------6--|---------------------|


                                                                     
----------------------|----------------------|----------------------|
----------------------|----------------------|----------------------|
----------------------|--6------6--6------6--|----------------------|
--1------1--1------1--|----------------------|--6------6--3------3--|


                                                                    
---------------------|----------------------|----------------------|
---------------------|----------------------|----------------------|
--3------3--3--------|----------------------|--6------6--6------6--|
---------------------|--1------1--1------1--|----------------------|


                                                                   
----------------------|-----------------------|-------------------|
----------------------|-----------------------|-------------------|
----------------------|--3------3--3----3-----|--3----------------|
--6------6--3------3--|--------------------6--|-------------------|


                                                             
-------------------|--5----------------|--------------------|
--------------5----|-------------------|--------------------|
-------------------|-------------------|--------------------|
-------------------|-------------------|--------------3--6--|


                                                                                
-------------------|-------------------|-------------------|-------------------|
-------------------|-------------------|-------------------|-------------------|
--3----------------|--1----------------|--3----------------|--1----------------|
-------------------|-------------------|-------------------|-------------------|


                                                              
-------------------|--------------------|--------------------|
-------------------|--------------------|--------------------|
--3----------------|--1-----------------|-----------1--------|
-------------------|-----------3--------|--4-----------------|


                                                             
-------------------|--------------------|-------------------|
-------------------|--------------------|-------------------|
--3----------------|--------------------|--3----------------|
-------------------|--------------3--6--|-------------------|


                                                                                
-------------------|-------------------|-------------------|-------------------|
-------------------|-------------------|-------------------|-------------------|
--1----------------|--3----------------|--1----------------|--3----------------|
-------------------|-------------------|-------------------|-------------------|


                                                              
--------------------|--------------------|-------------------|
--------------------|--------------------|-------------------|
--1-----------------|-----------1--------|--3----------------|
-----------3--------|--4-----------------|-------------------|


                                                           
-------------------|--5----------------|------------------|
--------------5----|-------------------|------------------|
-------------------|-------------------|------------------|
-------------------|-------------------|------------------|


                                                                    
----------------------|---------------------|----------------------|
----------------------|---------------------|----------------------|
--3------3--3------3--|------------1--------|--1------1--1------1--|
----------------------|--1------1-----------|----------------------|


                                                                     
----------------------|----------------------|----------------------|
----------------------|----------------------|----------------------|
--3------3--3------3--|----------------------|------------3------3--|
----------------------|--4------4--3------3--|--1------1------------|


                                                                    
----------------------|---------------------|----------------------|
----------------------|---------------------|----------------------|
--3------3------------|--3------3--3--------|--3------3--3------3--|
------------3------3--|---------------------|----------------------|


                                                                    
---------------------|----------------------|----------------------|
---------------------|----------------------|----------------------|
------------1--------|--1------1--1------1--|--3------3--3------3--|
--1------1-----------|----------------------|----------------------|


                                                                     
----------------------|----------------------|----------------------|
----------------------|----------------------|----------------------|
----------------------|------------3------3--|--3------3------------|
--4------4--3------3--|--1------1------------|------------3------3--|


                                                                   
---------------------|----------------------|---------------------|
---------------------|----------------------|---------------------|
--3------3--3--------|--3------3--3------3--|------------1--------|
---------------------|----------------------|--1------1-----------|


                                                                     
----------------------|----------------------|----------------------|
----------------------|----------------------|----------------------|
--1------1--1------1--|--3------3--3------3--|----------------------|
----------------------|----------------------|--4------4--3------3--|


                                                                    
----------------------|----------------------|---------------------|
----------------------|----------------------|---------------------|
------------3------3--|--3------3------------|--3------3--3--------|
--1------1------------|------------3------3--|---------------------|


                                                                    
----------------------|---------------------|----------------------|
----------------------|---------------------|----------------------|
--3------3--3------3--|--1------1--1--------|--1------1--1------1--|
----------------------|---------------------|----------------------|


                                                                     
----------------------|----------------------|----------------------|
----------------------|----------------------|----------------------|
--3------3--3------3--|----------------------|------------3------3--|
----------------------|--4------4--3------3--|--1------1------------|


                                                                      
----------------------|---------------------||-----------------------|
----------------------|---------------------||*----------------------|
--3------3------------|--3------3--3--------||*--3------3--3------3--|
------------3------3--|---------------------||-----------------------|


                                                                    
---------------------|----------------------|----------------------|
---------------------|----------------------|----------------------|
------------1--------|--1------1--1------1--|--3------3--3------3--|
--1------1-----------|----------------------|----------------------|


                                                                     
----------------------|----------------------|----------------------|
----------------------|----------------------|----------------------|
----------------------|------------3------3--|--3------3------------|
--4------4--3------3--|--1------1------------|------------3------3--|


                                                                    
----------------------|----------------------|---------------------|
----------------------|----------------------|---------------------|
--3------3--3------3--|--3------3--3------3--|------------1--------|
----------------------|----------------------|--1------1-----------|


                                                                     
----------------------|----------------------|----------------------|
----------------------|----------------------|----------------------|
--1------1--1------1--|--3------3--3------3--|----------------------|
----------------------|----------------------|--4------4--3------3--|


                                                                     
----------------------|----------------------|----------------------|
----------------------|----------------------|----------------------|
------------3------3--|--3------3------------|--3------3--3------3--|
--1------1------------|------------3------3--|----------------------|


                                                                    
----------------------|---------------------|----------------------|
----------------------|---------------------|----------------------|
--3------3--3------3--|------------1--------|--1------1--1------1--|
----------------------|--1------1-----------|----------------------|


                                                                     
----------------------|----------------------|----------------------|
----------------------|----------------------|----------------------|
--3------3--3------3--|----------------------|------------3------3--|
----------------------|--4------4--3------3--|--1------1------------|


                                                                    
----------------------|----------------------|---------------------|
----------------------|----------------------|---------------------|
--3------3------------|--3------3--3------3--|--8------8--6--------|
------------3------3--|----------------------|---------------------|


                                                                                
----------------------|----------------------|---------------------|----------||
----------------------|----------------------|---------------------|----------||
----------------------|--3------3--3------3--|--3---------3--------|----------||
--4------4--3------3--|----------------------|-------3-------------|----------||





Comments


Popular Blackmores Night tabs & chords
Crowning Of The King Chords
Down At The Old Mill Inn Chords
Faerie Queen Chords
Far Far Away Chords
Locked Within The Crystal Ball Chords
Play Minstrel Play Intro Chords
Storm Chords
Unqest Grave Tabs
Times They Are A Changin Ukulele
Village On The Sand Ukulele


Song lyrics



↑ Back to top | Tablatures and chords are parodies/interpretations of the original songs. You may use it for private study, scholarship, research or language learning purposes only
© 2014 AZChords.com Contact us | Privacy policy | DMCA | Add/correct tabs | Request tabs | Top 50 tabs