>
 >
The Spirit Flies

The Spirit Flies Guitar Tabs

Blackmores Night - The Spirit Flies chords, tabs, tablatures, lyrics

Guitar lessons | Add/correct | Request | Top 50 tabs Artists:  A B C D E F G H I J K L M N O P Q R S T U V W X Y Z 0-9

The Spirit Flies Guitar Tabs – Blackmores Night

CD, Sheet music, Poster

Do you like The Spirit Flies? Share with your friends now
Tabs
+++++++++++++++++++++++++++++++++++++++
| Blackmore's Night- The Spirit Flies |
+++++++++++++++++++++++++++++++++++++++


This is one of the hardest songs I've ever tabbed out!!
But its finally here, I hope you enjoy
and please rate my hard work, I'd really like that :D

On each step I've written down the chords
so you know when the first note hits



Tuning: Standard EADGBe


Intro
1.
e|-----2-------5---7~---7-9-10-7---------2-------5---7---7-9-5~-----|
B|---3-------5--------7----------7-----3-------5-------7--------7~--|
G|-4-----4/6-----6-7~--------------7-4-----4/6-----6-7--------------|
D|-----------------------------------------------------------4~-----|--x2
A|------------------------------------------------------------------|
E|------------------------------------------------------------------|
   Bm      A       Bm                Bm      A       Bm      F#m


Verse
2.
e|-2~--2-4-5~----0-0----------------------0---------0~---0----------|
B|-------------2-----3-0---0~---0-2-3~--3---3-2-0------0---3-0~---0-|
G|-----------------------2------------------------2-----------------|
D|-4~-------------------------4-----0~--------------2~----------4---|
A|-----------------2~------2~---------------0~---------------2~-----|
E|------------------------------------------------------------------|
   F#m             Bm               D       A       E        Bm

3.
e|-2~--2-4-5~--7-5-4~--0~-0~----------2-4-5~----0------------|
B|----------------------------0-2-3~----------2---3~-0~--0~--|
G|-----------------------------------------------------------|
D|-0~--------------2~-----2~----------4~---------------------|
A|---------0~-----------------2~------------------2~-----2~--|
E|-----------------------------------------------------------|
   D       A       E          Bm      F#m         Bm

4.
e|-2~--2-4-5~----0-0----------------------0---------0~---0----------|
B|-------------2-----3-0---0~---0-2-3~--3---3-2-0------0---3-0~---0-|
G|-----------------------2------------------------2-----------------|
D|-4~-------------------------4-----0~--------------2~----------4---|
A|-----------------2~------2~---------------0~---------------2~-----|
E|------------------------------------------------------------------|
   F#m             Bm               D       A       E        Bm

5.
e|-2~--2-4-5~--7-5-4~--0~-0~----------2-4-5~----0------------|
B|----------------------------0-2-3~----------2---3~-0~--0~--|
G|-----------------------------------------------------------|
D|-0~--------------2~-----2~----------4~---------------------|
A|---------0~-----------------2~------------------2~-----2~--|
E|-----------------------------------------------------------|
   D       A       E          Bm      F#m         Bm

0:43
6.
e|-----------------------------------------------------0-----------|
B|-----7-------2-------3-------3-------3-------2---------------3---|
G|---6-------2-------4-------4---4---2-------2-------4-------4-----|
D|-4-----4-------4---------4-------0-----0---------2-----2---------|
A|-----------------2-----2-----------------0-----0---------2-----2-|
E|---------2-------------------------------------------------------|
   F#m             Bm              D       A     E         Bm

7.
e|---------------------0-2-4-0----------------------------------|
B|-----3-------2---------------0-------3-------2-------3---0~---|
G|---2-------2-------4---------------4-------2-------4---4------|
D|-0-----0---------2-------------2------------------------------|
A|---------0-----0-----------------2-----2---------2-------2~---|
E|-----------------------------------------2-----2--------------|
   D       A       E               Bm      F#m     Bm

8.
e|-----------------------------------------------------0-----------|
B|-----7-------2-------3-------3-------3-------2---------------3---|
G|---6-------2-------4-------4---4---2-------2-------4-------4-----|
D|-4-----4-------4---------4-------0-----0---------2-----2---------|
A|-----------------2-----2-----------------0-----0---------2-----2-|
E|---------2-------------------------------------------------------|
   F#m             Bm              D       A     E         Bm

9.
e|---------------------0-2-4-0----------------------------------|
B|-----3-------2---------------0-------3-------2-------3---0~---|
G|---2-------2-------4---------------4-------2-------4---4------|
D|-0-----0---------2-------------2------------------------------|
A|---------0-----0-----------------2-----2---------2-------2~---|
E|-----------------------------------------2-----2--------------|
   D       A       E               Bm      F#m     Bm

Outro
10.
e|-----2-------5---7~---7-9-10-7---------2-------5---7---7-9-5~-----|
B|---3-------5--------7----------7-----3-------5-------7--------7~--|
G|-4-----4/6-----6-7~--------------7-4-----4/6-----6-7--------------|
D|-----------------------------------------------------------4~-----|--x2
A|------------------------------------------------------------------|
E|------------------------------------------------------------------|
   Bm      A       Bm                Bm      A       Bm      F#m

11.
e|-----2-----------------2-2~--4~-------|
B|---3-------2---------2----------------|
G|-4-----4/6---2-2---2------------------|
D|-----------------4--------------------|
A|--------------------------------------|
E|--------------------------------------|
   Bm      A       F#m

Bridge
1:33
12.
e|-5~----2h4p2-0-2-0---0~------------5~----2h4p2-0-2-0---7~--------------|
B|-------------------2---------0-2~--------------------2-----------------|
G|---6-------------------2-------------6-------------------9-------------|
D|-4---7-------------------2---------4---7---------------7---7-6---6-7---|--x2
A|---------------------4-----4-----------------------------------7-------|
E|-----------------------------------------------------------------------|
   F#m                 C#m           F#m                 E

1:50
13.
e|-5---2-2--0-2-0~----------------------------2-0~------0-|
B|--------------------2-----0---0-----2-3-2-3------2--2---|
G|---2------------2-----2~----2---------------------------|
D|-0-----0~---------2-------------4-----------------------|
A|--------------0-------------------2---2---2---4--4--4---|
E|--------------------------------------------------------|
   D            A               Bm              C#m

14.
e|-2-----2-0---4---5-4-2-0-----------------------------------------|
B|---3-------0---5---------2-------3-----2-0~----0-2~--------------|
G|-----2---------------------2---2---2---------2-----4---4-3-------|
D|-0~------2~------4~----------4---0~--4---------------4-----4---4-|
A|-----------------------------------------2~------------------4---|
E|-------------------------------------------------2~--------------|
   D       E       F#m             D       Bm      F#sus4  F#

15.
e|-2-----2-0---4---5-4-2-0------------------------------------------|
B|---3-------0---5---------2-------3-----2-0~----0-2----------------|
G|-----2---------------------2---2---2---------2---4-4---4-3~-------|
D|-0~------2~------4~----------4---0~--4---------------4------4~----|
A|-----------------------------------------2~--------------------4~-|
E|-------------------------------------------------2----------------|
   D       E       F#m             D       Bm      F#sus4  F#

2:16
16.
e|-5~----2h4p2-0-2-0---0~------------5~----2h4p2-0-2-0---7~--------------|
B|-------------------2---------0-2~--------------------2-----------------|
G|---6-------------------2-------------6-------------------9-------------|
D|-4---7-------------------2---------4---7---------------7---7-6---6-7---|--x2
A|---------------------4-----4-----------------------------------7-------|
E|-----------------------------------------------------------------------|
   F#m                 C#m           F#m                 E

17.
e|-5---2-2--0-2-0~----------------------------2-0~------0-|
B|--------------------2-----0---0-----2-3-2-3------2--2---|
G|---2------------2-----2~----2---------------------------|
D|-0-----0~---------2-------------4-----------------------|
A|--------------0-------------------2---2---2---4--4--4---|
E|--------------------------------------------------------|
   D            A               Bm              C#m

18.
e|-2-----2-0---4---5-4-2-0-----------------------------------------|
B|---3-------0---5---------2-------3-----2-0~----0-2~--------------|
G|-----2---------------------2---2---2---------2-----4---4-3-------|
D|-0~------2~------4~----------4---0~--4---------------4-----4---4-|
A|-----------------------------------------2~------------------4---|
E|-------------------------------------------------2~--------------|
   D       E       F#m             D       Bm      F#sus4  F#

19.
e|-2-----2-0---4---5-4-2-0------------------------------------------|
B|---3-------0---5---------2-------3-----2-0~----0-2----------------|
G|-----2---------------------2---2---2---------2---4-4---4-3~-------|
D|-0~------2~------4~----------4---0~--4---------------4------4~----|
A|-----------------------------------------2~--------------------4~-|
E|-------------------------------------------------2----------------|
   D       E       F#m             D       Bm      F#sus4  F#

Intro
20.
e|-----2-------5---7~---7-9-10-7---------2-------5---7---7-9-5~-----|
B|---3-------5--------7----------7-----3-------5-------7--------7~--|
G|-4-----4/6-----6-7~--------------7-4-----4/6-----6-7--------------|
D|-----------------------------------------------------------4~-----|--x2
A|------------------------------------------------------------------|
E|------------------------------------------------------------------|
   Bm      A       Bm                Bm      A       Bm      F#m

Verse
21.
e|-----------------------------------------------------0-----------|
B|-----7-------2-------3-------3-------3-------2---------------3---|
G|---6-------2-------4-------4---4---2-------2-------4-------4-----|
D|-4-----4-------4---------4-------0-----0---------2-----2---------|
A|-----------------2-----2-----------------0-----0---------2-----2-|
E|---------2-------------------------------------------------------|
   F#m             Bm              D       A     E         Bm

22.
e|---------------------0-2-4-0----------------------------------|
B|-----3-------2---------------0-------3-------2-------3---0~---|
G|---2-------2-------4---------------4-------2-------4---4------|
D|-0-----0---------2-------------2------------------------------|
A|---------0-----0-----------------2-----2---------2-------2~---|
E|-----------------------------------------2-----2--------------|
   D       A       E               Bm      F#m     Bm

23.
e|-----------------------------------------------------0-----------|
B|-----7-------2-------3-------3-------3-------2---------------3---|
G|---6-------2-------4-------4---4---2-------2-------4-------4-----|
D|-4-----4-------4---------4-------0-----0---------2-----2---------|
A|-----------------2-----2-----------------0-----0---------2-----2-|
E|---------2-------------------------------------------------------|
   F#m             Bm              D       A     E         Bm

24.
e|---------------------0-2-4-0----------------------------------|
B|-----3-------2---------------0-------3-------2-------3---0~---|
G|---2-------2-------4---------------4-------2-------4---4------|
D|-0-----0---------2-------------2------------------------------|
A|---------0-----0-----------------2-----2---------2-------2~---|
E|-----------------------------------------2-----2--------------|
   D       A       E               Bm      F#m     Bm

Outro
25.
e|-----2-------5---7~---7-9-10-7---------2-------5---7---7-9-5~-----|
B|---3-------5--------7----------7-----3-------5-------7--------7~--|
G|-4-----4/6-----6-7~--------------7-4-----4/6-----6-7--------------|
D|-----------------------------------------------------------4~-----|--x1000
A|------------------------------------------------------------------|
E|------------------------------------------------------------------|
   Bm      A       Bm                Bm      A       Bm      F#m

Last Solo
26.
e|--7~--7-9-10-9-7-5-7~--2~--0~----0-2-----------------------------------|
B|-------------------------------3-----------b3~-------------------------|
G|-------------------------------------4-2h4------4-2-4~--2--------------|
D|----------------------------------------------------------4~--2-0------|
A|------------------------------------------------------------------2~---|
E|-----------------------------------------------------------------------|

27.
e|-----------------------------------0-----0-2~----5-2-0-2-7~----10-9-7-5-2~----|
B|-------------------------2-3-0-2-3---2-3--------------------------------------|
G|-------4-2-------2-4-2-4------------------------------------------------------|
D|-0-2-4-----4~--4--------------------------------------------------------------|
A|------------------------------------------------------------------------------|
E|------------------------------------------------------------------------------|

28.
e|--9-10-12--14~----17-14-12-14-14~----14-12-10-9-10-9-7~--9-7-5~--|
B|-----------------------------------------------------------------|
G|-----------------------------------------------------------------|
D|-----------------------------------------------------------------|
A|-----------------------------------------------------------------|
E|-----------------------------------------------------------------|

29.
e|-7-5-2-0-2-0---0-0h2~----------------------------------------|
B|-------------3-----------------------------0-2-3-2-0~--------|
G|-----------------------4~--2~------------2-------------------|
D|-------------------------------4-2-4~------------------------|
A|-------------------------------------------------------------|
E|-------------------------------------------------------------|


Please rate thank you!



+++++++++++++++++++++++++++++++++
| RaiLeff                       |
+++++++++++++++++++++++++++++++++





Comments


Popular Blackmores Night tabs & chords
Castles And Dreams Bass Tabs
Down At The Old Mill Inn Chords
Past Times With Good Company Chords
Renaissance Faire Chords
Under A Violet Moon Tabs
Down At The Old Mill Inn Ukulele
Gone With The Wind Ukulele
Morning Star Ukulele
Sister Gypsy Ukulele
Wish You Were Here Ukulele


Song lyrics



↑ Back to top | Tablatures and chords are parodies/interpretations of the original songs. You may use it for private study, scholarship, research or language learning purposes only
© 2014 AZChords.com Contact us | Privacy policy | DMCA | Add/correct tabs | Request tabs | Top 50 tabs