» » »

Blackmores Night, Possum Goes To Prague Tabs (ver.1)

Artists:  A B C D E F G H I J K L M N O P Q R S T U V W X Y Z # 

Possum Goes To Prague Tabs (ver.1)

Blackmores Night Tabs
 Rating:
4.4/5 (7 votes)
Possum Goes To Prague lessons Tabs too difficult? Try these video lessons and learn fast
1
                ----------------------------------------------------------------------------
                    POSSUM GOES TO PRAGUE - Blackmore's Night
----------------------------------------------------------------------------

Tuning: Standard
 
e|----------0h7p0---------------------------------------------------------|
B|----------------10-8h10p8-7-------7-------------------------------------|
G|*-----9---------------------9---9---9--------------9-------------------*|
D|*---9---9---------------------9-------9-10-7-9-9-9---9-7-5h7p5---------*|
A|--7------------------------------------------------------------9-6-9-7--|
E|------------------------------------------------------------------------|

e|--------8-12-15-14-12-11-14-11----------------------------------------|
B|------8------------------------12-----------------------0---1-0h1p0---|
G|----9-----------------------------8-------------------0-------------2-|
D|-10---------------------------------9-------------2-4-----------------|
A|--------------------------------------9---------2---------0-----------|
E|----------------------------------------7-0-2-3-----------------------|

e|---------------5-3h5p3-2-0-----0---0---------------------------------|
B|---0-4-0-----0-------------0h3---5---1-0h1p0---0---0-----------------|
G|-----------5---------------------------------2---4---2-0h2p0---------|
D|---------4---------------------------------------------------4-1-4-2-|
A|-2-------------------------------------------------------------------|
E|---------------------------------------------------------------------|

e|-----------------------------0---------------------------2-3p2h3---|
B|-------0-------0---------0-----0---5-------------------3---------3-|
G|-----0-------5-----0---0---0-----------7---5---4-----2-------------|
D|---4-------4---------4-----------------------------0---------------|
A|-6-------6-------7---------------0---0---0---0---------------------|
E|-------------------------------------------------2-----------------|

e|--------------------------------------------------------------3p2-----|
B|-------0-------0----------------0-----------0-------------3-------3---|
G|-----0-------5----------------0---0-------0---0h2p0-----2---2-------0-|
D|---4-------4--------------2-4-------2---2-----------2-0---------------|
A|-6-------6--------------2-------------3-------------------------------|
E|-----------------0-2-3------------------------------------------------|

e|--------------------|
B|----------7---------|
G|--------8---9-8-----|
D|----------------9---|
A|---9-10-----------7-|
E|-7------------------|

e|----------0h7p0---------------------------------------------------------|
B|----------------10-8h10p8-7-------7-------------------------------------|
G|*-----9---------------------9---9---9--------------9-------------------*|
D|*---9---9---------------------9-------9-10-7-9-9-9---9-7-5h7p5---------*|
A|--7------------------------------------------------------------9-6-9-7--|
E|------------------------------------------------------------------------|

e|--------8-12-15-14-12-11-14-11----------------------------------------|
B|------8------------------------12-----------------------0---1-0h1p0---|
G|----9-----------------------------8-------------------0-------------2-|
D|-10---------------------------------9-------------2-4-----------------|
A|--------------------------------------9---------2---------0-----------|
E|----------------------------------------7-0-2-3-----------------------|

e|---------------5-3h5p3-2-0-----0---0---------------------------------|
B|---0-4-0-----0-------------0h3---5---1-0h1p0---0---0-----------------|
G|-----------5---------------------------------2---4---2-0h2p0---------|
D|---------4---------------------------------------------------4-1-4-2-|
A|-2-------------------------------------------------------------------|
E|---------------------------------------------------------------------|

e|---------------------------8-7-0--------8-11-12-14-15-14h15p14-12-------|
B|-----------------------7-8------------8---------------------------15-13-|
G|---------2-5-4-2----9---------------9-----------------------------------|
D|---1-2-4---------9---------------10-------------------------------------|
A|-2----------------------------------------------------------------------|
E|------------------------------------------------------------------------|

e|----------12------------|
B|-12-10-12----12-10----9-|
G|-------------------11---|
D|------------------------|
A|------------------------|
E|----------------------0-|

| /  slide up
| \  slide down
| h  hammer-on
| p  pull-off
| ~  vibrato
| +  harmonic
| x  Mute note
============================================================================
            
Submit corrections

comments powered by Disqus
↑ Back to top | Blackmores Night Tabs for Possum Goes To Prague. Lyrics for acoustic guitar and electric guitar. 1 Tablatures and chords are parodies/interpretations of the original songs. You may use it for private study, scholarship, research or language learning purposes only