» » »

Nur Eine Minute Tabs (ver.1)

Artists:  A B C D E F G H I J K L M N O P Q R S T U V W X Y Z # 

Nur Eine Minute Tabs (ver.1)

Blackmores Night
Rating:
5/5 (1 vote)

Hard to play? Try these video lessons and learn fast.
                Ok guys this tab is like impossible to find, so bloody enjoy it...
for all the Blackmore fans!.... \m/


E||--7/-7h5h4/2-4-0--1-0h1h0-----0---|------------------------------|
B||--------------------------3-1---1-|--0h1h0-----------------------|
G||----------------------------------|--------2h0-1----1------------|
D||----------------------------------|---------------3---3-2--------|
A||----------------------------------|------------------------------|
E||----------------------------------|-------------------------0----|

--0----------------||---------------------------|--------------------------|
--0----------------||------------------------0--|-----1--0--------------0--|
--1----------------||*--------------------1-----|-----------2--------0-----|
--2----------------||*-----------------2--------|-----------------0--------|
-------------------||---0--3--2--0--------------|--0-----------------------|
-------------------||---------------4-----------|--------------3-----------|

-----0------------------|----------------------||--------------------------|
--------3--1--0---------|----------------------||--------------3--1--0-----|
-------------------2----|--2----1----2--------*||-----------2-----------2--|
------------------------|---------------------*||--0--2--3-----------------|
--3-----2--0------------|------------0---------||--------------------------|
--------------3----1----|--0-------------------||--------------------------|

--------------1--0--------|--------------0--5-----------|
-----------0--------3--1--|--0h1h0----1--------8--6--5--|
--1-----1-----------------|--------2--------------------|
-----2--------------------|-----------------------------|
--------------------------|-----------------------------|
--------------------------|-----------------------------|

-----------------10--------|--8--7-----7--10--13--12--10--|
--6--5h6h5----6------------|--------8---------------------|
-----------7---------------|------------------------------|
---------------------------|------------------------------|
---------------------------|------------------------------|
---------------------------|------------------------------|

--12--15--13h15h13h12-----12--10--8--|--7--8--7h8h7/5-------------|
----------------------15-------------|----------------8--6--5-----|
-------------------------------------|-------------------------7--|
-------------------------------------|----------------------------|
-------------------------------------|----------------------------|
-------------------------------------|----------------------------|

------------------------|--7--5h7h5-0--7--8--7h8h7-0--8--|
------------------------|--------------------------------|
--5--4--2--1--4--2------|--------------------------------|
------------------------|--------------------------------|
------------------------|--------------------------------|
------------------------|--------------------------------|

--10--8h10h8-0--10--12--------|--8--7h8h7/5-----5-----------|
------------------------------|--------------8-----8--6--5--|
------------------------------|-----------------------------|
------------------------------|-----------------------------|
------------------------------|-----------------------------|
------------------------------|-----------------------------|

--------------------------|--7--5h7h5-0--7--8--7h8h7-0--8--|
--6--5h6h5----------------|--------------------------------|
-----------7--5--4--------|--------------------------------|
--------------------------|--------------------------------|
--------------------------|--------------------------------|
--------------------------|--------------------------------|

--10--8h10h8-0--10--12--------|--12--13--15--13--12--------------|
------------------------------|----------------------15--13--12--|
------------------------------|----------------------------------|
------------------------------|----------------------------------|
------------------------------|----------------------------------|
------------------------------|----------------------------------|

----------0--------------0------|----------0----------------|
------12-----12------12-----12--|------12-----12------------|
--14-------------14-------------|--14-------------14--------|
--------------------------------|---------------------------|
--------------------------------|---------------------------|
--------------------------------|---------------------------|

--------------------------|--------------------------|-----0------------------|
-----------------------0--|-----1--0--------------0--|--------3--1--0---------|
--------------------1-----|-----------2--------0-----|-------------------2----|
-----------------2--------|-----------------0--------|------------------------|
--0--3--2--0--------------|--0-----------------------|--3-----2--0------------|
--------------4-----------|--------------3-----------|--------------3----1----|

---------------------|--------------------------|--------------------------|
---------------------|-----------------------0--|-----1--0--------------0--|
--2----1----2--------|--------------------1-----|-----------2--------0-----|
---------------------|-----------------2--------|-----------------0--------|
------------0--------|--0--3--2--0--------------|--0-----------------------|
--0------------------|--------------4-----------|--------------3-----------|

-----0------------------|---------------------|
--------3--1--0---------|---------------------|
-------------------2----|--2----1----2--------|
------------------------|---------------------|
--3-----2--0------------|------------0--------|
--------------3----1----|--0------------------|

--12--10h12h10h9-----9----------------|--------------------------||
-----------------12-----10------------|--------------------------||
----------------------------9------9--|--------------------------||
-------------------------------11-----|--11------11--------------||
--------------------------------------|------12--------12--------||
--------------------------------------|--------------------------||
            
Hard to play? Try these video lessons and learn fast. | Correct




comments powered by Disqus
↑ Back to top | Tablatures and chords are parodies/interpretations of the original songs. You may use it for private study, scholarship, research or language learning purposes only