» » »

Blackmores Night, Now And Then Tabs (ver.1)

Artists:  A B C D E F G H I J K L M N O P Q R S T U V W X Y Z # 

Now And Then Tabs (ver.1)

Blackmores Night Tabs
 Rating:
4.2/5 (5 votes)
Now And Then lessons Tabs too difficult? Try these video lessons and learn fast
1
                +++++++++++++++++++++++++++++++++++
| Blackmore's Night- Now And Then |
+++++++++++++++++++++++++++++++++++

I havent stopped listening to this song
Ever since that serenade day, remember dear love?

Tuning: EADGBe


Intro: One Guitar
1.
e|---------0-----0---------0-----0---------1-----1---------1-----1-|
B|-------1-----1---------1-----1---------3-----3---------3-----3---|
G|-----0-----0---------0-----0---------2-----2---------2-----2-----|
D|---2---------------2---------------0---------------0-------------|
A|-3---------------3---------------3---------------3---------------|
E|-----------------------------------------------------------------|

2.
e|---------1-----1---------0---------------0---------------0-------|
B|-------3-----3-------------------------1---1-----------1---1-----|
G|-----0-----0-----------1---1~--------2-------2-------0-------0---|
D|---0-----------------0---------0---2-----------2---2-----------2-|
A|-2-----------------2-------------0-------------------------------|
E|-----------------0-------------------------------3---------------|

3.
e|---------0---------------0---------------3-----------------|
B|-------1---1-----------1---1-----------0---0---------------|
G|-----2-------2-------2-------2-------0-------0-------------|
D|---3-----------3---3-----------3---------------0-----------|
A|-----------------------------------2-----------------------|
E|-1---------------1---------------3---------------3~--------|

Verse: One Guitar
"The past is so familiar..."
4.
e|---------0---------------3---------------1---------------0-------|
B|-------1---1-----------0---0---------3-----3---3-------1---1-----|
G|-----0-------0-------0-------0-----2---------2-------2-------2---|
D|---2-----------2---------------0-0-----0-----------2-----------2-|
A|-3-----------------2-----------------------------0---------------|
E|-----------------3-----------------------------------------------|

"Too many ghosts, too many haunted dreams..."
5.
e|---------1---------------0-------------1-------1---------------3-|
B|-------1---1-----------1---1---------3-------1---------0-----0---|
G|-----2-------2-------0-------0-----2-------2---------0-----0-----|
D|---3-----------3---2-----------2-0-------3---------0-------------|
A|-----------------3---------------------------------------2-------|
E|-1-----------------------------------------------3---------------|

"But after all these years..."
6.
e|---------0---------------3---------------0---------------0-------|
B|-------1---1-----------0---0---------------0-----------1---1-----|
G|-----0-------0-------0-------0---------1-----1-------2-------2---|
D|---2-----------2---------------0-----0---------0---2-----------2-|
A|-3-----------------2---------------2-------------0---------------|
E|-----------------3---------------0-------------------------------|

"But when I reach for you and search your eyes..."
7.
e|---------1---------------0---------------1---------------3-------|
B|-------1---1-----------1---1---------3-----3---3-------0---0-----|
G|-----2-------2-------0-------0-----2---------2-------0-------0---|
D|---3-----------3---2-----------2-0-----0-----------------------0-|
A|-----------------3---------------------------------2-------------|
E|-1-----------------------------------------------3---------------|

Chorus: Two Guitars

Guitar 1

"Thats Ok, I'll be fine..."
8.
e|---------0---------------3---------------0---------------0-------|
B|-------1---1-----------0---0---------------0-----------1---1-----|
G|-----0-------0-------0-------0---------1-----1-------2-------2---|
D|---2-----------2---------------0-----0---------0---2-----------2-|
A|-3-----------------2---------------2-------------0---------------|
E|-----------------3---------------0-------------------------------|

"But when you leave just remember what we had..."
9.
e|---------1---------------0---------------3---------------3-------|
B|-------1---1-----------1---1-----------0---0-----------0---0-----|
G|-----2-------2-------0-------0-------0-------0-------0-------0---|
D|---3-----------3---2-----------2---------------0---0-----------0-|
A|-----------------3-----------------2-------------2---------------|
E|-1-------------------------------3-------------------------------|

"There's more to life than just you..."
10.
e|---------0---------------3---------------0---------------0-------|
B|-------1---1-----------0---0---------------0-----------1---1-----|
G|-----0-------0-------0-------0---------1-----1-------2-------2---|
D|---2-----------2---------------0-----0---------0---2-----------2-|
A|-3-----------------2---------------2-------------0---------------|
E|-----------------3---------------0-------------------------------|

"And I know that the sun will shine again..."
11.
e|---------1---------------0---------------3-----------------------|
B|-------1---1-----------1---1-----------0---0---------------------|
G|-----2-------2-------0-------0-------0-------0-------------------|
D|---3-----------3---2-----------2---------------0-----------------|
A|-----------------3-----------------2-----------------------------|
E|-1-------------------------------3---------------3~--------------|

Guitar 2

1:07
"There's more to life than just you..."
12.
e|----12-10---10-8---7/8--------4-5-5-7-7/8--5--------|
B|-13-------------------------------------------------|
G|----------------------------------------------------|
D|----------------------------------------------------|
A|----------------------------------------------------|
E|----------------------------------------------------|

1:17
"And I know that the sun will shine again..."
13.
e|-----7-------|
B|-------8-----|
G|-------------|
D|-------------|
A|-------------|
E|-------------|

Outro: One Guitar

14.
e|---------0-----0---------0-----0---------1-----1---------1-----1-|
B|-------1-----1---------1-----1---------3-----3---------3-----3---|
G|-----0-----0---------0-----0---------2-----2---------2-----2-----|
D|---2---------------2---------------0---------------0-------------|
A|-3---------------3---------------3---------------3---------------|
E|-----------------------------------------------------------------|

15.
e|---------1-----1---------0---------------0---------------0-------|
B|-------3-----3-------------------------1---1-----------1---1-----|
G|-----0-----0-----------1---1~--------2-------2-------0-------0---|
D|---0-----------------0---------0---2-----------2---2-----------2-|
A|-2-----------------2-------------0-------------------------------|
E|-----------------0-------------------------------3---------------|

16.
e|---------0---------------0---------------3-----------------|
B|-------1---1-----------1---1-----------0---0---------------|
G|-----2-------2-------2-------2-------0-------0-------------|
D|---3-----------3---3-----------3---------------0-----------|
A|-----------------------------------2-----------------------|
E|-1---------------1---------------3---------------3~--------|

Verse: Two Guitars

Guitar 1

"Cant do a thing with ashes..."
17.
e|---------0---------------3---------------1---------------0-------|
B|-------1---1-----------0---0---------3-----3---3-------1---1-----|
G|-----0-------0-------0-------0-----2---------2-------2-------2---|
D|---2-----------2---------------0-0-----0-----------2-----------2-|
A|-3-----------------2-----------------------------0---------------|
E|-----------------3-----------------------------------------------|

Guitar 2

"Cant do a thing with ashes..."
18.
e|--7h8/10----------------12-10-12-10-8\7-5~--------|
B|--------------------------------------------------|
G|--------------------------------------------------|
D|--------------------------------------------------|
A|--------------------------------------------------|
E|--------------------------------------------------|

Guitar 1

"Though this heart may be in pieces now..."
19.
e|---------1---------------0-------------1-------1---------------3-|
B|-------1---1-----------1---1---------3-------1---------0-----0---|
G|-----2-------2-------0-------0-----2-------2---------0-----0-----|
D|---3-----------3---2-----------2-0-------3---------0-------------|
A|-----------------3---------------------------------------2-------|
E|-1-----------------------------------------------3---------------|

Guitar 2

"Though this heart may be in pieces now..."
20.
e|----5-7/8--------|
B|-----------------|
G|-----------------|
D|-----------------|
A|-----------------|
E|-----------------|

Guitar 1

"I'll come back stronger than I ever did before..."
21.
e|---------0---------------3---------------0---------------0-------|
B|-------1---1-----------0---0---------------0-----------1---1-----|
G|-----0-------0-------0-------0---------1-----1-------2-------2---|
D|---2-----------2---------------0-----0---------0---2-----------2-|
A|-3-----------------2---------------2-------------0---------------|
E|-----------------3---------------0-------------------------------|

Guitar 2

"I'll come back stronger than I ever did before..."
22.
e|----10p8~----7h8/10~--------|
B|----------------------------|
G|----------------------------|
D|----------------------------|
A|----------------------------|
E|----------------------------|

Guitar 1

"Just dont turn around when you walk out that door..."
23.
e|---------1---------------0---------------3---------------3-------|
B|-------1---1-----------1---1-----------0---0-----------0---0-----|
G|-----2-------2-------0-------0-------0-------0-------0-------0---|
D|---3-----------3---2-----------2---------------0---0-----------0-|
A|-----------------3-----------------2-------------2---------------|
E|-1-------------------------------3-------------------------------|

Chorus: Two Guitars

Guitar 1

"And thats ok, I'll be fine..."
24.
e|---------0---------------3---------------0---------------0-------|
B|-------1---1-----------0---0---------------0-----------1---1-----|
G|-----0-------0-------0-------0---------1-----1-------2-------2---|
D|---2-----------2---------------0-----0---------0---2-----------2-|
A|-3-----------------2---------------2-------------0---------------|
E|-----------------3---------------0-------------------------------|

Guitar 2

"And thats ok, I'll be fine..."
25.
e|-----------12--------7h8/10~--------7\4--------|
B|--------13-------------------------------------|
G|-----------------------------------------------|
D|-----------------------------------------------|
A|-----------------------------------------------|
E|-----------------------------------------------|

Guitar 1

"But when you leave just remember what we had..."
26.
e|---------1---------------0---------------3---------------3-------|
B|-------1---1-----------1---1-----------0---0-----------0---0-----|
G|-----2-------2-------0-------0-------0-------0-------0-------0---|
D|---3-----------3---2-----------2---------------0---0-----------0-|
A|-----------------3-----------------2-------------2---------------|
E|-1-------------------------------3-------------------------------|

"Cause there's more to life than just you..."
27.
e|---------0---------------3---------------0---------------0-------|
B|-------1---1-----------0---0---------------0-----------1---1-----|
G|-----0-------0-------0-------0---------1-----1-------2-------2---|
D|---2-----------2---------------0-----0---------0---2-----------2-|
A|-3-----------------2---------------2-------------0---------------|
E|-----------------3---------------0-------------------------------|

"And I know that the sun will shine again..."
28.
e|---------1---------------0---------------3---------------3-------|
B|-------1---1-----------1---1-----------0---0-----------0---0-----|
G|-----2-------2-------0-------0-------0-------0-------0-------0---|
D|---3-----------3---2-----------2---------------0---0-----------0-|
A|-----------------3-----------------2-------------2---------------|
E|-1-------------------------------3-------------------------------|

29.
e|---------0---------------3-------|
B|-------1---1-----------0---0-----|
G|-----0-------0-------0-------0---|
D|---2-----------2---------------0-|
A|-3-----------------2-------------|
E|-----------------3---------------|

Guitar 2

2:43
30.
e|--------7h8/10~--------|
B|-----------------------|
G|-----------------------|
D|-----------------------|
A|-----------------------|
E|-----------------------|

Guitar 1

"And thats ok, I'll be fine..."
31.
e|---------0---------------3---------------0---------------0-------|
B|-------1---1-----------0---0---------------0-----------1---1-----|
G|-----0-------0-------0-------0---------1-----1-------2-------2---|
D|---2-----------2---------------0-----0---------0---2-----------2-|
A|-3-----------------2---------------2-------------0---------------|
E|-----------------3---------------0-------------------------------|

Guitar 2

"And thats ok, I'll be fine..."
32.
e|--------12-10-8--------7h8/10~--------7\4--------|
B|-------------------------------------------------|
G|-------------------------------------------------|
D|-------------------------------------------------|
A|-------------------------------------------------|
E|-------------------------------------------------|

Guitar 1

"And even though our story's at the end..."
33.
e|-------------------------0---------------------------------------------------------------|
B|---------1-------------1---1-----------0~------------------------------------------------|
G|-------2---2---------0-------0-------0---------------------------------0~----------------|
D|-----3-------3-----2-----------2---0---------------------------------2-------------------|
A|---3-------------3-------------------------------------------------3---------------------|
E|-1-------------1-----------------3-------------------------------3-----------------------|


Lyrics:


The past is so familiar, but that's why you couldn't stay
Too many ghosts, too many haunted dreams
Beside you were built to find your own way
But after all these years, I thought we'd still hold on
But when I reach for you and search your eyes
I see you've already gone

That's Ok, I'll be fine
I've got myself, I'll heal in time
But when you leave just remember what we had
There's more to life than just you
I may cry but I'll make it through
And I know that the sun will shine again
Though I may think of you now and then

Can't do a thing with ashes, but throw them to the wind
Though this heart may be in pieces now
You know I'll build it up again and
I'll come back stronger than I ever did before
Just don't turn around when you walk out that door

And that's ok, I'll be fine
I've got myself, I'll heal in time
But when you leave just remember what we had
'Cause there's more to life than just you
I may cry but I'll make it through
And I know that the sun will shine again
Though I may think of you now and then

And that's ok, I'll be fine
I've got myself, I'll heal in time
And even though our story's at the end
I still may think of you now and then


+++++++++++++++++++++++++++++++++
| RaiLeff                       |
+++++++++++++++++++++++++++++++++
            
Submit corrections

comments powered by Disqus
↑ Back to top | Blackmores Night Tabs for Now And Then. Lyrics for acoustic guitar and electric guitar. 1 Tablatures and chords are parodies/interpretations of the original songs. You may use it for private study, scholarship, research or language learning purposes only