» » »

Catherine Howard's Fate Tabs (ver.1)

Artists:  A B C D E F G H I J K L M N O P Q R S T U V W X Y Z # 

Catherine Howard's Fate Tabs (ver.1)

Blackmores Night
Rating:
0/5 (0 votes)

Hard to play? Try these video lessons and learn fast.
                Blackmore's knight - Catherine Howard's fate.


This is a fairly simple song, if you can keep up with chord changes...
It's supposed to be played on 2 guitars,
but I play it on one. It sounds really awesome on acoustic.
I tabbed it down for one. For 2, just play the above or below.
And instead of breaking your fingers trying to hit the tones,
Use a capo on the 3:rd fret.

Enjoy!



Verse:





|---------3-----4--3h4p3---3-----4--3h4p3---------------------|
|---3-4-6----------------6----------------6-4--3-------3------|
|-5----------5----------------5------------------5-4-5---4-5--|
|-------3-5-----6--5-----3-5-----6--5-----3-------------------|
|-3-5-6------3----------------3-------------6--5-3---3-5---3--|
|--------------------------------------------------6-----6----|


Chorus:

|---------------------------------------------------3-|
|-------------------------------3-4-6-3-------3-4-6---|
|---------------------3-------5----------3--5---------|
|-6-5---6-5-----3-5-6---5-----------------------------|
|-8---8---3--6--8-------3--6----------------3---------|
|-----------------------------4-------3---------6---3-|


Bridge:

|-3--------------------------------------|
|---6-4-3-4-3h4p3----13-11h13p11--9-8--9-|
|-----------------5--13-12h13p12-10-8-10-|
|----------------------------------------|
|-3-------------------3------------------|
|----------------------------------------|

|----------------7-8-10-10/11\10--7-8-10-10/11\10-|
|-6-4-3---3---------------------------------------|
|-------5---5-3--4-5--7--7/-8\7---4-5--7--7/-8\7--|
|-------------------------------------------------|
|-------------------------------------------------|
|-6--------------3----------------3---------------|

For the ending, just play the normal verse part
then hit the final note like this:

   Final note
  /
|-8--11-10-8------------------------|
|------------11-9-8h9p8-------------|
|-----------------------10-8-7/8----|
|--------------------------------10-|
|-3------------------------------3--|
|-----------------------------------|


This is a kickass song, If I do say so myself.
            
Hard to play? Try these video lessons and learn fast. | Correct




comments powered by Disqus
↑ Back to top | Tablatures and chords are parodies/interpretations of the original songs. You may use it for private study, scholarship, research or language learning purposes only