» » »

Blackmores Night, Castles And Dreams Bass tabs (ver.1)

Artists:  A B C D E F G H I J K L M N O P Q R S T U V W X Y Z # 

Castles And Dreams Bass tabs (ver.1)

Blackmores Night Tabs
Rating:
0/5 (0 votes)
Castles And Dreams lessons Tabs too difficult? Try these video lessons and learn fast
                +++++++++++++++++++++++++++++++++++++++++
| Blackmore's Night- Castles And Dreams |
+++++++++++++++++++++++++++++++++++++++++


"Copper coins shine for the sun from the floor of a wishing well..."

Tuning: EADG


Intro
1.
G|-------------------------------------------------|
D|-------------------------------------------------|
A|-------------------------------------------------|
E|-2~----2~----2~----2~----2~----2~----2~----2~----|

Verse
"Solitare with a song in her heart..."
2.
G|-------------------------------------------------|
D|-------------------------0~----2~----------------|
A|-------------4~----------------------0~----0~----|
E|-2~----2~----------2~----------------------------|

"Turned her back on all that she knew..."
3.
G|-------------------------------------------------|
D|-------------------------0~----2~----------------|
A|-------------4~----------------------0~----4~----|
E|-2~----2~----------2~----------------------------|

Chorus
"And the rains came down..."
4.
G|-------------------------------------------------------------------------|
D|-------0~----2~----------4~----0~----2~----------4~----0~----2~----2~----|
A|-------------------4~----------------------4~----------------------------|
E|-2~----------------------------------------------------------------------|

"It always seems those castles and dreams..."
5.
G|-------------------------------------------------------------|
D|-0~----------------------------------------------------------|
A|-------0~----2~----------2~----0~----------------------------|
E|-------------------2~----------------2~----2~----2~----2~----|

Verse
"Such a sad story..."
6.
G|-------------------------------------------------|
D|-------------------------0~----2~----------------|
A|-------------4~----------------------0~----0~----|
E|-2~----2~----------2~----------------------------|

"Copper coins shine from the sun..."
7.
G|-------------------------------------------------|
D|-------------------------0~----2~----------------|
A|-------------4~----------------------0~----4~----|
E|-2~----2~----------2~----------------------------|

Chorus
"And the rains came down..."
8.
G|-------------------------------------------------------------------------|
D|-------0~----2~----------4~----0~----2~----------4~----0~----2~----2~----|
A|-------------------4~----------------------4~----------------------------|
E|-2~----------------------------------------------------------------------|

"It always seems those castles and dreams..."
9.
G|-------------------------------------------------------------|
D|-0~----------------------------------------------------------|
A|-------0~----2~----------2~----0~----------------------------|
E|-------------------2~----------------2~----2~----2~----2~----|

Bridge
10.
G|-------------------------------------------------------------------------|
D|-------------------------------------------------------------------------|
A|-2~----2~----------------2~----2~----------------2~----2~----------------|
E|-------------2~----2~----------------2~----2~----------------2~----2~----|

11.
G|-------------------------------------|
D|-0~----0~----------------------3~----|
A|-------------4~----4~----4~----------|
E|-------------------------------------|

Verse
"So the jewel of jeopardy..."
12.
G|-------------------------------------------------|
D|-------------------------0~----2~----------------|
A|-------------4~----------------------0~----0~----|
E|-2~----2~----------2~----------------------------|

"So unsure of what we've become..."
13.
G|-------------------------------------------------|
D|-------------------------0~----2~----------------|
A|-------------4~----------------------0~----4~----|
E|-2~----2~----------2~----------------------------|

Chorus
"And the rains came down..."
14.
G|-------------------------------------------------------------------------|
D|-------0~----2~----------4~----0~----2~----------4~----0~----2~----2~----|
A|-------------------4~----------------------4~----------------------------|
E|-2~----------------------------------------------------------------------|

"It always seems those castles and dreams..."
15.
G|-------------------------------------------------|
D|-0~----------------------------------------------|
A|-------0~----2~----------2~----0~----------4~----|
E|-------------------2~----------------2~----------|

"And the rains came down..."
16.
G|-------------------------------------------------------------------------|
D|-------0~----2~----------4~----0~----2~----------4~----0~----2~----2~----|
A|-------------------4~----------------------4~----------------------------|
E|-2~----------------------------------------------------------------------|

"It always seems those castles and dreams..."
17.
G|-------------------------------------------------|
D|-0~----------------------------------------------|
A|-------0~----2~----------2~----0~----------------|
E|-------------------2~----------------2~----2~----|

"It always seems those castles and dreams..."
18.
G|-----------------------------|
D|-0~--------------------------|
A|-------0~----2~--------------|
E|-------------------2~--------|

Outro
"Fade with the morning light..."
19.
G|-------------------|
D|-------------------|
A|-------------------|
E|-2~----------------|


Lyrics:


Solitare with a song in her heart
But what a sad song to sing
Turned her back on all that she knew
In the hopes of a golden Ring...

And the rains came down
And the stars fell from the sky
Oh, how dark the night
It always seems those castles and dreams
Fade with the morning light

Such a sad story
That time loves to tell
Copper coins shine for the sun

So the jewel of jeopardy
Shines with each dangerous step
So unsure of what we've become
What we have and what we have left



+++++++++++++++++++++++++++++++++
| RaiLeff                       |
+++++++++++++++++++++++++++++++++
            

comments powered by Disqus
↑ Back to top | Blackmores Night Bass for Castles And Dreams. Lyrics for acoustic guitar and electric guitar. Tablatures and chords are parodies/interpretations of the original songs. You may use it for private study, scholarship, research or language learning purposes only