» » »

Blackmores Night, Breton Dance Tabs (ver.1)

Artists:  A B C D E F G H I J K L M N O P Q R S T U V W X Y Z # 

Breton Dance Tabs (ver.1)

Blackmores Night Tabs
 Rating:
4/5 (4 votes)
Breton Dance lessons Tabs too difficult? Try these video lessons and learn fast
                +++++++++++++++++++++++++++++++++++
| Blackmore's Night- Breton Dance |
+++++++++++++++++++++++++++++++++++



This song is actually on Drop D tuning
but I prefer to play it on Standard since
its way easier to place the fingers on the fretboard
However, the parts where a low D is required,
I just tabbed it an octave higher
thank you



Tuning: Standard EADGBe



Intro
1.
e|----------------------------------------------------------|
B|---3-3~---1-----------------1---3-3~---1-----------1~-----|
G|-0---0~-----3-2-0-----0-2-3---0---0~-----3-2-0----------2-|
D|------------------3~---------------------------3~---------|
A|----------------------------------------------------------|
E|-3------------1-------3-------3------------1-------1------|
   Gm           F       Gm                   F

2.
e|----------------------------------------------------------|
B|---3-3~---1-----------------1---3-3~---1------------------|
G|-0---0~-----3-2-0-----0-2-3---0---0~-----3-2-0-----0~-----|
D|------------------3~---------------------------3~---------|
A|----------------------------------------------------------|
E|-3------------1-------3-------3------------1-------3------|
   Gm           F       Gm                   F       Gm

3.
e|----------------------------------------------------------|
B|---3-3~---1-----------------1---3-3~---1-----------1~-----|
G|-0---0~-----3-2-0-----0-2-3---0---0~-----3-2-0----------2-|
D|------------------3~---------------------------3~---------|
A|----------------------------------------------------------|
E|-3------------1-------3-------3------------1-------1------|
   Gm           F       Gm                   F

4.
e|----------------------------------------------------------|
B|---3-3~---1-----------------1---3-3~---1------------------|
G|-0---0~-----3-2-0-----0-2-3---0---0~-----3-2-0-----0~-----|
D|------------------3~---------------------------3~-------3-|
A|----------------------------------------------------------|
E|-3------------1-------3-------3------------1-------3------|
   Gm           F       Gm                   F       Gm

00:19

5.
e|-----3-3p1---3-1---3-3p1----------------------3-3p1---3-1---3-3p1-----------------|
B|---3-------3-----3-------3-1---------1~-----3-------3-----3-------3-1-------------|
G|-0---0-----3---2---3---------3-0-2-3----2-0---0-----3---2---3---------3-0-2h3-0---|
D|--------------------------------------------------------------------------------0-|--x2
A|----------------------------------------------------------------------------------|
E|-3-----------------3-----------------1----3-----------------3---------------------|
   Gm                Gm                F    Gm                Gm                Gm

00:37

6.
e|-------------------------------------------------------------------------------|
B|-3-1-3-------------------3-3-1---------------3-3-1-----------1-----------------|
G|-------0---0-3-2-0-2-2-0---0---3-3-2-0-2~--0---0---3-3-2-0-2---3~--2-0---0~----|
D|---------3-------------------------------------------------0-----------3-------|--x2
A|---------5---------------------------------------------------------------------|
E|-3-----------3-----1-1-3---------3-----1---3---------3---------3-------------3-|
   Gm                F             Gm    F   Gm

00:57

7.
e|3-3-1-0----------------------------------------3-3-1-0------------------------------------------|
B|--------3~---3-1---1-3~---4-3-1---------1-3------------3~---3-1---1-3~---4-3-1------------------|
G|3-3-2-0-0--0~----3------0~------3-2-0-3-----0--3-3-2-0-0--0~----3------0-0------3-2-0~----0~----|
D|----------------------------------------------------------------------------------------3----0--|
A|--------------------------3---------------------------------------------------------------------|
E|--------------------------------------3-------------------------------------------1------------3|
   Gm                        Cm          Gm                                 Cm       F           Gm


Please rate thank you!



+++++++++++++++++++++++++++++++++
| RaiLeff                       |
+++++++++++++++++++++++++++++++++
            
Submit corrections

comments powered by Disqus
↑ Back to top | Blackmores Night Tabs for Breton Dance. Lyrics for acoustic guitar and electric guitar. Tablatures and chords are parodies/interpretations of the original songs. You may use it for private study, scholarship, research or language learning purposes only