» » »

Black Label Society, Stillborn Tabs (ver.1)

Artists:  A B C D E F G H I J K L M N O P Q R S T U V W X Y Z # 

Stillborn Tabs (ver.1)

Black Label Society Tabs
 Rating:
4/5 (4 votes)
Stillborn lessons Tabs too difficult? Try these video lessons and learn fast
                Song- Stillborn
By- Black Label Society

Song is dropped down half a step
Just to say that this tab is from the guitar one magazine, so i didnt do it ;)


 Intro+Verses- some 2's are random pinch harmonics, so move the pick 
	       back and forth along the low E to get them while playing.
  
 owwwwwwwwwwwwwwwwwwwwwwwwwwwwwwwwwwwwwwwwwwwwwwwwwwwwwwwwww
e--------------------------------------------------------]
B--------------------------------------------------------]
G--------------------------------------------------------]
D--------------------------------------------------------]
A--------------------------------------------------------]
E-2-2-2-2-2--2-2-2-2-2---------2-2-2-2-2--2-2-2-2-2-/16\-]
  Blind me erase what was
  Stillborn I have to become-verse 1
 
Pre-Chorus- play intro after(little bit) than go to verse 2
  
  Empty just a shell of a man
  Stillborn this I understand-verse 2

Pre-chorus
e----------------------------------------------]
B----------------------------------------------]
G----------------------------------------------]
D--2-------2-------2-------2-------2-------2---]
A--2-------2-------2-------2-------2-------2---]
E--0--0-0--0--0-0--0--0-0--0--0-0--0--0-0--0---]
      pm.     ...     ...     ...     ....
 The feeling I once felt are now dead and goneeeeeeee
 I waited here for you for so very long for so very long

Chorus
e-------------------------------------------------------------]
B--------3--------5----------------------------------3------5-]
G--------2--------2----4/5\4----4/5\4--2-------------2------2-]
D-4------0-------------x--------x------2-------4-----0--------]
A-4------0-------------2/3\2----2/3\2--0-------4-----0--------]
E-2-0-0------0-0--------------0-----------0-0--2--0-0---0-0---]
    pm.      ...              .           ...     ...   ...
  Oh I waited here for you here for you so very long
  Oh I waited her for you for you

 pre-solo
e------------------]
B------------------]
G------------------]
D------------------]
A-0-0-0-0-0-0-0----]
E-0-0-0-0-0-0-0----]
    pm.........

Solo- use wah-wah			    
e-------------------/20-----------------------------------------]
B--------------------------------------4gb1/2-(4)-4-(4)--2~------]
G----------------------------------2h4---------------------------]
D---2tr4~~~~~~~~~~~------------2h4-------------------------/19\--]
A----------------------20\---4-----------------------------/19\--]
E----------------------------------------------------------------]
you

e-------------------------------------------------------------------------------------]
B--------------------------------------------------------------14-17-17br1p14-17b1~---]
G----------------------------16p14-16b1~----------------141616------------------------]
D---------------------141614---------------------141616-------------------------------]
A--------121415141616---------------------141516--------------------------------------]
E-121414------------------------------------------------------------------------------]
  pm........................              ..................

  <----4x----->
e-14-------------14-------17br1/2p14--17p14----14----14h17-17p16-1714-16p14-14----141614---------]
B----17p14-17b1-----17p14-------------------17----17---------------------------17--------1717b1~-]
G------------------------------------------------------------------------------------------------]
D------------------------------------------------------------------------------------------------]
A------------------------------------------------------------------------------------------------]
E------------------------------------------------------------------------------------------------]

e---------------------------------------------------------------]
B-------2h5p2------2h5p2------2h5p2-------semi P.H.....---------]
G-4b1~--------4b1~-------4b1~-------4b1~-(4)(4)(4)(4)(4)r4---2~-]
D---------------------------------------------------------------]
A---------------------------------------------------------------]
E---------------------------------------------------------------]

  try pull-offs or hammer-ons on this or just play em all without
e------457-----579------7910-------91012---------------101214----------10-12h14---------14----]
B--357-----579-----7910------91012----------------------------10-12h14----------14------17b1~-]
G----------------------------------------91112-----9h11----------------------------11~--------]
D----------------------------------------------9h12------------------------------------0------]
A---------------------------------------------------------------------------------------------]
E---------------------------------------------------------------------------------------------]

after solo play chorus and end it with a pick scr*pe before you go to intro.

/-slide down
\-slide up
tr-thrill
h-hammer on
gb1/2-gradual bend 1/2 step
~-vibrato
br-bend-release
p-pull off
b-bend
b1-bend up 1 step
 

Thats it, you know I was bored so I decided to tab this out, cause its a really bad-ass song.
Solo's kinda hard, but with practice everybody should be able to get it down.
            
Submit corrections

comments powered by Disqus
↑ Back to top | Black Label Society Tabs for Stillborn. Lyrics for acoustic guitar and electric guitar. Tablatures and chords are parodies/interpretations of the original songs. You may use it for private study, scholarship, research or language learning purposes only