>
 >
Queen Of Sorrow

Queen Of Sorrow Guitar Tabs

Black Label Society - Queen Of Sorrow chords, tabs, tablatures, lyrics

Guitar lessons | Add/correct | Request | Top 50 tabs Artists:  A B C D E F G H I J K L M N O P Q R S T U V W X Y Z 0-9

Queen Of Sorrow Guitar Tabs – Black Label Society

CD, Sheet music, Poster

Do you like Queen Of Sorrow? Share with your friends now
Bass TabsTabsTabs v2

THIS IS NOT MY TAB, ALL THANKS GOES TO CJPEMBERTON AND blacklabelsociety.net!!!

Tuning: Standard (EADGBE)

Intro
 Acoustic
E||---------------------|---------------------|---------------------|---------------------|
B||---------------------|--------2------------|---------------------|--------2------------|
G||---------------------|---------------------|---------------------|---------------------|
D||--------4------------|-----2---------------|--------4------------|-----4---------------|
A||-----4---------------|--0------------------|-----2---------------|---------------------|
E||--2------------------|---------------------|--0------------------|--2------------------|

 Electric
E||--------------------|----------------------|---------------------|---------------------|
B||--------------------|----------------------|---------------------|---------------------|
G||--7b----------------|----------------------|--5b-----------------|---------------------|
D||--------------------|----------------------|---------------------|---------------------|
A||--------------------|----------------------|---------------------|---------------------|
E||--------------------|----------------------|---------------------|---------------------|

 Acoustic
E||---------------------|---------------------|---------------------|---------------------|
B||---------------------|--------2------------|---------------------|--------2------------|
G||---------------------|---------------------|---------------------|---------------------|
D||--------4------------|-----2---------------|--------4------------|-----4---------------|
A||-----4---------------|--0------------------|-----2---------------|---------------------|
E||--2------------------|---------------------|--0------------------|--2------------------|

 Electric
  |---------------------|---------------------|---------------------|---------------------|
  |---------------------|---------------------|--12r----------------|---------------------|
  |---------------------|---------------------|--12r----------------|---------------------|
  |--9b-----------------|---------------------|---------------------|---------------------|
  |---------------------|---------------------|---------------------|---------------------|
  |---------------------|---------------------|---------------------|---------------------|

Bridge
 Acoustic
E||---------------------|---------------------|---------------------|---------------------|
B||---------------------|--------2------------|---------------------|--------2------------|
G||*--------------------|---------------------|---------------------|--------------------*|
D||*-------4------------|-----2---------------|--------4------------|-----4--------------*|
A||-----4---------------|--0------------------|-----2---------------|---------------------|
E||--2------------------|---------------------|--0------------------|--2------------------|

   Electric
  |---------------------|---------------------|---------------------|---------------------|
  |---------------------|---------------------|---------------------|---------------------|
  |*--------------------|---------------------|---------------------|--------------------*|
  |*--------------------|---------------------|---------------------|--------------------*|
  |---------------------|---------------------|---------------------|---------------------|
  |---2------------4/---|--5------------------|--0------------------|-/7------------------|

Verse x 4
  Acoustic
 |----------------------|---------------------|---------------------|---------------------|
 |----------------------|--------2------------|---------------------|--------2------------|
 |*---------------------|--------2-------2----|--------4----4-------|--------4-----------*|
 |*-------------4-------|-----2--2-------2----|--------4----4-------|-----4--4-----------*|
 |---4--4--4----4-------|--0--0--0-------0----|--2--2--2----2-------|--2--2--2------------|
 |---2-----2----2-------|---------------------|--0--0---------------|--2------------------|

  Electric
   (first time only)
 |----------------------|---------------------|---------------------|---------------------|
 |----------------------|---------------------|---------------------|---------------------|
 |*---------------------|---------------------|---------------------|--------------------*|
 |*--4------------------|---------------------|---------------------|--------------------*|
 |---4------------------|---------------------|---------------------|---------------------|
 |---2------------------|---------------------|---------------------|---------------------|

Chorus
   Acoustic
 |----------------------|---------------------|---------------------|---------------------|
 |------------2---------|-------2-------------|---------------------|---------------------|
 |*-----------2---------|----2--2-------------|-----------1---------|----1--1-------------|
 |*--2--------2---------|----2--2-------------|--2--------2---------|----2--2-------------|
 |---0--------0---------|----0--0-------------|--2--------2---------|----2--2-------------|
 |----------------------|---------------------|--0--------0---------|----0--0-------------|

   Electric
 |----------------------|---------------------|---------------------|---------------------|
 |----------------------|---------------------|---------------------|---------------------|
 |*---------------------|---------------------|---------------------|---------------------|
 |*--9b-----------------|------------------9r-|---------------------|---------------------|
 |----------------------|---------------------|---------------------|---------------------|
 |----------------------|---------------------|---------------------|---------------------|

   Acoustic
 |----------------------|---------------------|-----------2---------|---------------------|
 |----------------------|---------------------|--3--------3---------|-------3-------------|
 |------------2---------|----2--2-------------|--2--------2---------|----2--2------------*|
 |--4---------4---------|----4--4-------------|--0--------0---------|----0--0------------*|
 |--4---------4---------|----4--4-------------|---------------------|---------------------|
 |--2---------2---------|----2--2-------------|---------------------|---------------------|

   Electric
 |----------------------|---------------------|---------------------|---------------------|
 |----------------------|---------------------|---------------------|---------------------|
 |----------------------|---------------------|---------------------|--------------------*|
 |--9b------------------|------------7b-------|--7r-----------------|--------------------*|
 |----------------------|---------------------|---------------------|---------------------|
 |----------------------|---------------------|---------------------|---------------------|

Bridge
Verse
Chorus

Middle 8 x 3
  Electric                  PH     PH   PH
 |----------------------|---------------------|---------------------|----------------------
 |----------------------|---------------------|---------------------|---------------------|
 |*---------------------|---------------------|---------------------|--------------------*|
 |*---------------2-----|---------------------|---------------2-----|----5------4----2---*|
 |---4------------0-----|----3~-----2---------|--4------------0-----|----3~-----2----0----|
 |---2------------------|----------------3----|--2------------------|---------------------|

Solo
(with verse as backing)
  Electric
|-----------------------|---------------------|
|-----------------------|-----------17b-------|
|-----------------------|---------------------|
|-----------------------|---------------------|
|-----------------------|---------------------|
|-----------------------|---------------------|


----------14--16--14h16h14-------|--14--------------------------|
---------------------------17-14-|------17b-----17--14----------|
---------------------------------|----------------------16--16b-|
---------------------------------|------------------------------|
---------------------------------|------------------------------|
---------------------------------|------------------------------|


----------------------------------|--17------------------------|
----14--17h14-------14--------14--|------17--17----------------|
--------------16h14-----16b-------|----------16r-----------14--|
----------------------------------|--------------------16------|
----------------------------------|----------------------------|
----------------------------------|----------------------------|


----------------17--12--------|----------------------------|
--17----17------17------17----|--14------17--14------------|
--16b---16-14-----------16r---|--14------16--14----16------|
------------------------------|------16------------16------|
------------------------------|----------------------------|
------------------------------|----------------------------|


--17-14-------17-14-17-14-------17-14-17-14-------|
--------17-14-------------17-14-------------17-14-|
--------------------------------------------------|
--------------------------------------------------|
--------------------------------------------------|
--------------------------------------------------|


--17-14-17-14-------17-14-17-14-------17-14-------|
--------------17-14-------------17-14-------17-14-|
--------------------------------------------------|
--------------------------------------------------|
--------------------------------------------------|
--------------------------------------------------|


--17-14-------19-14-17-14-19-17-14-19-14-17-14-19-14-17-------------|
--------17-14-------------------------------------------14h17h14----|
-----------------------------------------------------------------16-|
--------------------------------------------------------------------|
--------------------------------------------------------------------|
--------------------------------------------------------------------|


-----------------------------------------------------|--19b---------------|
--14h17h14----14h17h14----------------------14-------|--------------------|
-----------16----------16h14----14h16h14----16~------|--------------------|
-----------------------------16----------16----------|--------------------|
-----------------------------------------------------|--------------------|
-----------------------------------------------------|--------------------|


--19r---17----------------|----------------14------|
------------19~-----17/---|------17b-----------17--|
--------------------16/---|------------------------|
--------------------------|------------------------|
--------------------------|------------------------|
--------------------------|------------------------|


----------------------------------|---------------------|------------------|
--14h17h14----14------------------|---------------------|------------------|
-----------16-----16r-----14------|--16b----------------|------------------|
------------------------------16--|---------------------|------------------|
----------------------------------|---------------------|------------------|
----------------------------------|---------------------|------------------|

Chorus
Intro
End on F#





Comments


Popular Black Label Society tabs & chords
Blackened Waters Bass Tabs
Born To Lose 2 Bass Tabs
Blood Is Thicker Than Water Chords
Like A Bird Chords
The Blessed Hellride 1 Chords
In This River 1 Tabs
Last Goodbye Tabs
Mass Murder Machine 3 Tabs
Refuse To Bow Down 1 Tabs
Nothings The Same Ukulele


Song lyrics



↑ Back to top | Tablatures and chords are parodies/interpretations of the original songs. You may use it for private study, scholarship, research or language learning purposes only
© 2014 AZChords.com Contact us | Privacy policy | DMCA | Add/correct tabs | Request tabs | Top 50 tabs