» » »

Black Keys, Shes Long Gone Tabs (ver.1)

Artists:  A B C D E F G H I J K L M N O P Q R S T U V W X Y Z # 

Shes Long Gone Tabs (ver.1)

Black Keys Tabs
 Rating:
4/5 (4 votes)
Shes Long Gone lessons Tabs too difficult? Try these video lessons and learn fast
                

Tuning: Standard

Main Riff (Guitar 1):
e|---------------------0--|
B|--------------------0---|
G|------------------------|
D|----2-2-----(0)---------|
A|--------0h2-------------|
E|--0-------------3-0-----|

Guitar 2:
e|----------------------|
B|----------------------|
G|----------------------|
D|-14-14-------12/------|
A|-------12h14----------|
E|-----------------15---|

e|---------------------------|
B|---------------------------|
G|--------------------12p9---|
D|-14-14--------12h14--------|
A|--------14-----------------|
E|---------------------------|

e|----------------------|
B|----------------------|
G|----------------------|
D|-14-14-------12/------|
A|-------12h14----------|
E|-----------------15b--|

e|---------------------12----12--|
B|------------------------12-----|
G|-------------------------------|
D|-14-14--------12h14------------|
A|--------14---------------------|
E|-------------------------------|

Guitar 1
e|---------------------|
B|---------------------|
G|---------------------|
D|----2-2-----(0)------|
A|--------0h2----------|
E|--0-------------3-0--|

Guitar 2
e|--------------|
B|--12b--15fb---|
G|--------------| x1
D|--------------|
A|--------------|
E|--------------|

e|----------------------------------------|
B|-5-5--5-8-8--10-12-10-8--5-5-8-10-8-5---|
G|----------------------------------------|
D|----------------------------------------|
A|----------------------------------------|
E|----------------------------------------|

On the last time do this
e|----------------------------------------|
B|-5-5--5-8-8--10-12-17-17--15-15-17b-----|
G|----------------------------------------|
D|----------------------------------------|
A|----------------------------------------|
E|----------------------------------------|

And repeat those parts throughout the song and do a little solos in between.
            
Submit corrections

comments powered by Disqus
↑ Back to top | Black Keys Tabs for Shes Long Gone. Lyrics for acoustic guitar and electric guitar. Tablatures and chords are parodies/interpretations of the original songs. You may use it for private study, scholarship, research or language learning purposes only