» » »

Lonely Boy Tabs (ver.6)

Artists:  A B C D E F G H I J K L M N O P Q R S T U V W X Y Z # 

Lonely Boy Tabs (ver.6)

Black Keys
Rating:
0/5 (0 votes)

Hard to play? Try these video lessons and learn fast.
                 This is a cool song to play and is quite easy! thoughtd id have a go

 b=Bend
(D)=dive bomb to the note inside the bracket/use a phase changer if you  have one



 Intro/Riff #1
 (0.05)
e-------------------------------------|
B-------------------------------------|
G-------------------------------------|X4
D-------------------------------------|
A-------------------------------------|
E---0-0-0-0-3b--0-0--0-0-0-0-(D)------|


  Riff #2
 (0.17)
e--------------------------------------------|
B----5-5--5-3--------------------------------|
G---------------2-0-2---2-2--2-0-------------|X2
D----------------------------------2-0-2-----|
A--------------------------------------------|
E--------------------------------------------|

  Riff #3
 (0.28)
     |------------------------ PM -------------------------------------|
e-----0-0-0-0----------0-0-0-0----------0-0-0-0----------0-0-0-0-------|
B-----0-0-0-0----------0-0-0-0----------0-0-0-0----------0-0-0-0-------|
G----------------------------------------------------------------------|X4
D----------------------------------------------------------------------|
A----------------------------------------------------------------------|
E---0----------0-3b-0-----------0-3b-0-----------0-3b-0----------------|

 dont palm mute the Low E string only the high one.

 Verse
(0.39)

e----0-0-0-0-----3-3------5-5-5-5------------|
B----0-0-0-0-----3-3------5-5-5-5------------|
G-------------------------6-6-6-6------------|
D-------------------------7-7-7-7------------|
A-------------------------7-7-7-7------------|
E-0-----------3--------5---------------------|

 Alternate doin up and down strokes on ^A


 Chorus
(1.02)
 listen to the rythem

e-----------------------------------3-3-3-3-3-3-3-3-5-5-5-5-5-5-5-5-|
B-----------------------------------3-3-3-3-3-3-3-3-5-5-5-5-5-5-5-5-|
G---9-9-9-9-9-9-9-9-9-9-9-9-9-9-9-9-4-4-4-4-4-4-4-4-6-6-6-6-6-6-6-6-|
D---9-9-9-9-9-9-9-9-9-9-9-9-9-9-9-9-5-5-5-5-5-5-5-5-7-7-7-7-7-7-7-7-|
A---7-7-7-7-7-7-7-7-7-7-7-7-7-7-7-7-5-5-5-5-5-5-5-5-7-7-7-7-7-7-7-7-|
E-----------------------------------3-3-3-3-3-3-3-3-5-5-5-5-5-5-5-5-|



 Riff #3
(1.27)

     |------------------------ PM -------------------------------------|
e-----0-0-0-0----------0-0-0-0----------0-0-0-0----------0-0-0-0-------|
B-----0-0-0-0----------0-0-0-0----------0-0-0-0----------0-0-0-0-------|
G----------------------------------------------------------------------|X4
D----------------------------------------------------------------------|
A----------------------------------------------------------------------|
E---0----------0-3b-0-----------0-3b-0-----------0-3b-0----------------|

Has Varieations to the Low E String the second time.^



 Verus
(1.37)

e----0-0-0-0-----3-3------5-5-5-5------------|
B----0-0-0-0-----3-3------5-5-5-5------------|
G-------------------------6-6-6-6------------|
D-------------------------7-7-7-7------------|
A-------------------------7-7-7-7------------|
E-0-----------3--------5---------------------|



  Chorus
 (2.00)

e-----------------------------------3-3-3-3-3-3-3-3-5-5-5-5-5-5-5-5-|
B-----------------------------------3-3-3-3-3-3-3-3-5-5-5-5-5-5-5-5-|
G---9-9-9-9-9-9-9-9-9-9-9-9-9-9-9-9-4-4-4-4-4-4-4-4-6-6-6-6-6-6-6-6-|
D---9-9-9-9-9-9-9-9-9-9-9-9-9-9-9-9-5-5-5-5-5-5-5-5-7-7-7-7-7-7-7-7-|
A---7-7-7-7-7-7-7-7-7-7-7-7-7-7-7-7-5-5-5-5-5-5-5-5-7-7-7-7-7-7-7-7-|
E-----------------------------------3-3-3-3-3-3-3-3-5-5-5-5-5-5-5-5-|



 Intro/Riff #1
(2.23)

e-------------------------------------|
B-------------------------------------|
G-------------------------------------|
D-------------------------------------|X4
A-------------------------------------|
E---0-0-0-0-3b--0-0--0-0-0-0-(D)------|




 Riff #2
 (2.35)
e--------------------------------------------|
B----5-5--5-3--------------------------------|
G---------------2-0-2---2-2--2-0-------------|X2
D----------------------------------2-0-2-----|
A--------------------------------------------|
E--------------------------------------------|

 Chorus
 (2.47)

e-----------------------------------3-3-3-3-3-3-3-3-5-5-5-5-5-5-5-5-|
B-----------------------------------3-3-3-3-3-3-3-3-5-5-5-5-5-5-5-5-|
G---9-9-9-9-9-9-9-9-9-9-9-9-9-9-9-9-4-4-4-4-4-4-4-4-6-6-6-6-6-6-6-6-|
D---9-9-9-9-9-9-9-9-9-9-9-9-9-9-9-9-5-5-5-5-5-5-5-5-7-7-7-7-7-7-7-7-|
A---7-7-7-7-7-7-7-7-7-7-7-7-7-7-7-7-5-5-5-5-5-5-5-5-7-7-7-7-7-7-7-7-|
E-----------------------------------3-3-3-3-3-3-3-3-5-5-5-5-5-5-5-5-|

(3.13)
 Then the end!
            
Hard to play? Try these video lessons and learn fast. | Correct




comments powered by Disqus
↑ Back to top | Tablatures and chords are parodies/interpretations of the original songs. You may use it for private study, scholarship, research or language learning purposes only