>
 >
Warped

Warped Guitar Tabs

Blackfoot - Warped chords, tabs, tablatures, lyrics

Guitar lessons | Add/correct | Request | Top 50 tabs Artists:  A B C D E F G H I J K L M N O P Q R S T U V W X Y Z 0-9

Warped Guitar Tabs – Blackfoot

CD, Sheet music, Poster

Do you like Warped? Share with your friends now
Tabs
1. 			                         Warped- Blackfoot
2.                            Tomcattin'-1980
3.           Words and Music Rick Medlocke and Jakson Spires
Tuning:Standard

Guitar I (over driven)
Intro
e|----------------------------2--|-------------------------------|
B|----------------------------3--|-------------------------------|
G|------2-------2-------------2--|------2-------2----------------|
D|------2-------2-------------0--|------2-------2-------------2--|
A|------0-------0---3p0----------|------0-------0---3p0-------2--|
E|--3-------3-------------3------|--3-------3-------------3---0--|

1st Solo			               T
e|--12----12---------------------------------------------------------|
B|--15b---15b---13---15----------------------------------------------|
G|------------------------14------------14b---19/----14br---12-------|
D|--------------------------\------------------------------------14--|
A|---------------------------\---------------------------------------|
E|----------------------------\--------------------------------------|
                               \

1st Verse

e|-------------------------------------|----------------------------2------|
B|-------------------------------------|----------------------------3------|
G|--0---2---0---2-----------0----------|--0---2---0---2-------------2------|
D|--0---2---0---2-------0-----------2--|--0---2---0---2-------------0------|
A|------0-------0-------------------2--|------0-------0---3p0-----------3--|
E|------------------3-----------2---0--|------------------------3----------|

e|-------------------------------------|----------------------------2--|
B|-------------------------------------|----------------------------3--|
G|--0---2---0---2-----------0----------|--0---2---0---2-------------2--|
D|--0---2---0---2-------0-----------2--|--0---2---0---2-------------0--|
A|------0-------0-------------------2--|------0-------0---3p0----------|
E|------------------3-----------2---0--|------------------------3------|

1st Chorus
 P.M.------------|				                        ~~~~~
e|------------------------------------------------|
B|------------------5p0-----------5p0--0--3-------|
G|------------------4p0-----------4p0--0--2-------|
D|--2---2---2---2---------------------------------|
A|--2---2---2---2---------------------------------|
E|--0---0---0---0---------0---0-------------------|

 P.M.------------|			  
e|-------------------------------------------------|
B|------------------5p0-----------5p0--0--3---5----|
G|------------------4p0-----------4p0--0--2---4----|
D|--2---2---2---2----------------------------------|
A|--2---2---2---2----------------------------------|
E|--0---0---0---0---------0---0--------------------|

 P.M.------------|		                        ~~~~~
e|------------------------------------------------|
B|------------------5p0-----------5p0--0--3-------|
G|------------------4p0-----------4p0--0--2-------|
D|--2---2---2---2---------------------------------|
A|--2---2---2---2---------------------------------|
E|--0---0---0---0---------0---0-------------------|

 P.M.------------|			  
e|-------------------------------|
B|------------------5p0----0--3--|
G|------------------4p0----0--2--|
D|--2---2---2---2----------------|
A|--2---2---2---2----------------|
E|--0---0---0---0----------------|

e|----------------------------------2--|---------------------------|
B|----------------------------------3--|---------------------------|
G|--------0---2---0---2-------------2--|------2-------2---5---2----|
D|--------0---2---0---2-------------0--|------2-------2---5---2----|
A|------------0-------0---3p0----------|------0-------0-------0----|
E|--15\-------------------------3------|--3-------3----------------|

2nd Solo
e|------------------------------0--8p5p0--9p6p0--10p7p0--11p8p0--12p9p0------|
B|--8b--8br--5--8b--8br--5--8b-------------------------------------------15b-|
G|---------------------------------------------------------------------------|
D|---------------------------------------------------------------------------|
A|---------------------------------------------------------------------------|
E|---------------------------------------------------------------------------|

2nd Verse
e|-------------------------------------|----------------------------2------|
B|-------------------------------------|----------------------------3------|
G|--0---2---0---2-----------0----------|--0---2---0---2-------------2------|
D|--0---2---0---2-------0-----------2--|--0---2---0---2-------------0------|
A|------0-------0-------------------2--|------0-------0---3p0-----------3--|
E|------------------3-----------2---0--|------------------------3----------|

e|-------------------------------------|----------------------------2-------|
B|-------------------------------------|----------------------------3-------|
G|--0---2---0---2-----------0----------|--0---2---0---2-------------2-------|
D|--0---2---0---2-------0-----------2--|--0---2---0---2-------------0-------|
A|------0-------0-------------------2--|------0-------0---3p0-----------3---|
E|------------------3-----------2---0--|------------------------3-----------|

e|-------------------------------------|----------------------------2------|
B|-------------------------------------|----------------------------3------|
G|--0---2---0---2-----------0----------|--0---2---0---2-------------2------|
D|--0---2---0---2-------0-----------2--|--0---2---0---2-------------0------|
A|------0-------0-------------------2--|------0-------0---3p0-----------3--|
E|------------------3-----------2---0--|------------------------3----------|

e|-------------------------------------|----------------------------2-------|
B|-------------------------------------|----------------------------3-------|
G|--0---2---0---2-----------0----------|--0---2---0---2-------------2-------|
D|--0---2---0---2-------0-----------2--|--0---2---0---2-------------0-------|
A|------0-------0-------------------2--|------0-------0---3p0-----------3---|
E|------------------3-----------2---0--|------------------------3-----------|

2nd Chorus
 P.M.------------|				                       ~~~~~
e|------------------------------------------------|
B|------------------5p0-----------5p0--0--3-------|
G|------------------4p0-----------4p0--0--2-------|
D|--2---2---2---2---------0---0-------------------|
A|--2---2---2---2---------0---0-------------------|
E|--0---0---0---0---------------------------------|

 P.M.------------|			  
e|-------------------------------------------------|
B|------------------5p0-----------5p0--0--3---5----|
G|------------------4p0-----------4p0--0--2---4----|
D|--2---2---2---2---------0---0--------------------|
A|--2---2---2---2---------0---0--------------------|
E|--0---0---0---0----------------------------------|

 
P.M.------------|		                           ~~~~~
e|------------------------------------------------|
B|------------------5p0-----------5p0--0--3-------|
G|------------------4p0-----------4p0--0--2-------|
D|--2---2---2---2---------0---0-------------------|
A|--2---2---2---2---------0---0-------------------|
E|--0---0---0---0---------------------------------|

 P.M.------------|			  
e|-------------------------------------------------|
B|------------------5p0-----------5p0--0--3---5----|
G|------------------4p0-----------4p0--0--2---4----|
D|--2---2---2---2---------0---0--------------------|
A|--2---2---2---2---------0---0--------------------|
E|--0---0---0---0----------------------------------|

 P.M.------------|		                           ~~~~~
e|------------------------------------------------|
B|------------------5p0-----------5p0--0--3-------|
G|------------------4p0-----------4p0--0--2-------|
D|--2---2---2---2---------0---0-------------------|
A|--2---2---2---2---------0---0-------------------|
E|--0---0---0---0---------------------------------|

 P.M.------------|			  
e|-------------------------------------------------|
B|------------------5p0-----------5p0--0--3---5----|
G|------------------4p0-----------4p0--0--2---4----|
D|--2---2---2---2---------0---0--------------------|
A|--2---2---2---2---------0---0--------------------|
E|--0---0---0---0----------------------------------|

 P.M.------------|		                        ~~~~~
e|------------------------------------------------|
B|------------------5p0-----------5p0--0--3-------|
G|------------------4p0-----------4p0--0--2-------|
D|--2---2---2---2---------0---0-------------------|
A|--2---2---2---2---------0---0-------------------|
E|--0---0---0---0---------------------------------|

 P.M.------------|			  
e|-------------------------------|
B|------------------5p0----0--3--|
G|------------------4p0----0--2--|
D|--2---2---2---2----------------|
A|--2---2---2---2----------------|
E|--0---0---0---0----------------|

e|----------------------------------2------|---------------------------------|
B|----------------------------------3------|---------------------------------|
G|--------0---2---0---2-------------2------|--0---2---0---2------------------|
D|--------0---2---0---2-------------0------|--0---2---0---2------------2--2--|
A|------------0-------0---3p0--------------|------0-------0--3p0-------2--2--|
E|--15\-------------------------3----------|-----------------------3---0--0--|

e|----------------------------2------|---------------------------------|
B|----------------------------3------|---------------------------------|
G|--0---2---0---2-------------2------|--0---2---0---2------------------|
D|--0---2---0---2-------------0------|--0---2---0---2------------2--2--|
A|------0-------0---3p0--------------|------0-------0--3p0-------2--2--|
E|------------------------3----------|-----------------------3---0--0--|

Bridge
e|--0---3-----------|--2----------------------|----------------------------|
B|--0---3-----------|--3----------------------|--3--2--2--2----3--2--2--2--|
G|--1---0---1---2---|--2-------------------2--|--2--2--3--2----2--2--3--2--|
D|--2-------2---2---|--0-------------------2--|--4--2--4--2----4--2--4--2--|
A|----------2---0---|------3p2---3p2-------0--|----------------------------|
E|----------0-------|------------------3------|----------------------------|

e|-------------------------------------------|-------------------------------|
B|-------------------------------------------|-------------------------------|
G|----------------------------------0--1--2--|--5--2--5--2----5--2--5--2---2-|
D|--3--3--3--3--3--3---2--0--1--2---------2--|--5--2--5--2----5--2--5--2---2-|
A|--3--3--3--3--3--3---2------------------0--|-------------------------------|
E|--1--1--1--1--1--1---0---------------------|-------------------------------|

e|--2---3----------------------|----------------------------|
B|--3---3----------------------|--3--2--2--2----3--2--2--2--|
G|--2---2-------------------2--|--2--2--3--2----2--2--3--2--|
D|--0---0-------------------2--|--4--2--4--2----4--2--4--2--|
A|----------3p2---3p2-------0--|----------------------------|
E|----------------------3------|----------------------------|

e|-------------------------------------------|--3-----3-----3---|
B|-------------------------------------------|--3-----3-----3---|
G|----------------------------------0--1--2--|--0-----0-----0---|
D|--3--3--3--3--3--3---2--0--1--2---------2--|------------------|
A|--3--3--3--3--3--3---2------------------0--|------------------|
E|--1--1--1--1--1--1---0---------------------|------------------|

Main Solo		                      ~~~
e|---------------------|-----------7-------------------------|
B|---------------------|------10-------10p7-------7----------|
G|--7---0---9---0---7--|--7-------------------9-------7------|
D|--7---0---9---0---7--|----------------------------------9--|
A|---------------------|-------------------------------------|
E|---------------------|-------------------------------------|

                               ~~~
e|---------------------|-----------7---------------------------------------|
B|---------------------|------10-------10p7-------7-------------------12b--|
G|--7---0---9---0---7--|--7-------------------9-------9---7---9---7--------|
D|--7---0---9---0---7--|---------------------------------------------------|
A|---------------------|---------------------------------------------------|
E|---------------------|---------------------------------------------------|

e|-----------------0--------7-------|------10----------------7---------------|
B|--10--------10-------9b-------10--|--7--------7---10---7-------7---10---7--|
G|-------11-------------------------|----------------------------------------|
D|----------------------------------|----------------------------------------|
A|----------------------------------|----------------------------------------|
E|----------------------------------|----------------------------------------|

e|-------------------------------|---------------------------------------|
B|-------------------------------|--------------9---7--------------------|
G|--9br---7---9brbr---7---9---7--|--------------9---7--------------------|
D|-------------------------------|--9---7---9----------------------------|
A|-------------------------------|----------------------7br---5---7---5--|
E|-------------------------------|---------------------------------------|

e|-------------------------------------------------|
B|--------------------------------------------10b--|
G|------------------7---9---9br---7---9---7--------|
D|--------------9----------------------------------|
A|-------------------------------------------------|
E|--5---6---7--------------------------------------|

Breakdown
e|-----------------|-----------------|-----------------|-----------------|
B|-----------------|-----------------|-----------------|-----------------|
G|-----------------|-----------------|-----------------|-----------------|
D|--------------5--|----------5------|-----------------|----------5------|
A|--5---5---7------|--5---7-------7--|--5---5---7------|--5---7-------7--|
E|--0---0---0------|--0---0-------0--|--0---0---0---3--|--0---0-------0--|

e|-----------------|-----------------|-----------------|-----------------|
B|-----------------|-----------------|-----------------|-----------------|
G|-----------------|-----------------|-----------------|----------7------|
D|--------------5--|----------5------|-----------------|--7---9-------9--|
A|--5---5---7------|--5---7-------7--|--5---5---7------|-----------------|
E|--0---0---0------|--0---0-------0--|--0---0---0---3--|-----------------|

e|------------------|-----------------|-------------|-----------------|
B|------------------|-----------------|-------------|-----------------|
G|--------------7+--|----------7------|-------------|----------7------|
D|--7---7---9-------|--7---9-------9--|--7p9h7------|--7---9-------9--|
A|------------------|-----------------|----------5--|-----------------|
E|------------------|-----------------|-------------|-----------------|

e|------------------|-----------------|-----------------|
B|------------------|-----------------|-----------------|
G|--------------7+--|----------7------|-----------------|
D|--7---7---9-------|--7---9-------9--|--7p9h7----------|
A|------------------|-----------------|----------5---5--|
E|------------------|-----------------|-----------------|

e|----------------------------2--|-----------------------------------|
B|----------------------------3--|-----------------------------------|
G|------2-------2-------------2--|------2-------2--------------------|
D|------2-------2-------------0--|------2-------2-------------2---2--|
A|------0-------0---3p0----------|------0-------0---3p0-------2---2--|
E|--3-------3-------------3------|--3-------3-------------3---0---0--|

e|----------------------------2--|-----------------------------------|
B|----------------------------3--|-----------------------------------|
G|------2-------2-------------2--|------2-------2--------------------|
D|------2-------2-------------0--|------2-------2-------------2---2--|
A|------0-------0---3p0----------|------0-------0---3p0-------2---2--|
E|--3-------3-------------3------|--3-------3-------------3---0---0--|

e|--0---3-------|
B|--0---3-------|
G|--1---0---1---|
D|--2-------2---|
A|----------2---|
E|----------0---|

3rd Verse
e|-------------------------------------|----------------------------2------|
B|-------------------------------------|----------------------------3------|
G|--0---2---0---2-----------0----------|--0---2---0---2-------------2------|
D|--0---2---0---2-------0--------------|--0---2---0---2-------------0------|
A|------0-------0-------------------2--|------0-------0---3p0-----------3--|
E|------------------3-----------2---0--|------------------------3----------|

e|-------------------------------------|----------------------------2-------|
B|-------------------------------------|----------------------------3-------|
G|--0---2---0---2-----------0----------|--0---2---0---2-------------2-------|
D|--0---2---0---2-------0--------------|--0---2---0---2-------------0-------|
A|------0-------0-------------------2--|------0-------0---3p0-----------3---|
E|------------------3-----------2---0--|------------------------3-----------|

e|-------------------------------------|----------------------------2-------|
B|-------------------------------------|----------------------------3-------|
G|--0---2---0---2-----------0----------|--0---2---0---2-------------2-------|
D|--0---2---0---2-------0--------------|--0---2---0---2-------------0-------|
A|------0-------0-------------------2--|------0-------0---3p0-----------3---|
E|------------------3-----------2---0--|------------------------3-----------|

e|-------------------------------------|----------------------------2--|
B|-------------------------------------|----------------------------3--|
G|--0---2---0---2-----------0----------|--0---2---0---2-------------2--|
D|--0---2---0---2-------0--------------|--0---2---0---2-------------0--|
A|------0-------0-------------------2--|------0-------0---3p0----------|
E|------------------3-----------2---0--|------------------------3------|

3rd Chorus
 P.M.------------|			                       ~~~~~
e|------------------------------------------------|
B|------------------5p0-----------5p0--0--3-------|
G|------------------4p0-----------4p0--0--2-------|
D|--2---2---2---2---------0---0-------------------|
A|--2---2---2---2---------0---0-------------------|
E|--0---0---0---0---------------------------------|

  P.M.------------|			  
e|-------------------------------------------------|
B|------------------5p0-----------5p0--0--3---5----|
G|------------------4p0-----------4p0--0--2---4----|
D|--2---2---2---2---------0---0--------------------|
A|--2---2---2---2---------0---0--------------------|
E|--0---0---0---0----------------------------------|

 P.M.------------|		                           ~~~~~
e|------------------------------------------------|
B|------------------5p0-----------5p0--0--3-------|
G|------------------4p0-----------4p0--0--2-------|
D|--2---2---2---2---------0---0-------------------|
A|--2---2---2---2---------0---0-------------------|
E|--0---0---0---0---------------------------------|

 P.M.------------|			  
e|-------------------------------------------------|
B|------------------5p0-----------5p0--0--3---5----|
G|------------------4p0-----------4p0--0--2---4----|
D|--2---2---2---2---------0---0--------------------|
A|--2---2---2---2---------0---0--------------------|
E|--0---0---0---0----------------------------------|

 P.M.------------|		                          ~~~~~
e|------------------------------------------------|
B|------------------5p0-----------5p0--0--3-------|
G|------------------4p0-----------4p0--0--2-------|
D|--2---2---2---2---------0---0-------------------|
A|--2---2---2---2---------0---0-------------------|
E|--0---0---0---0---------------------------------|

 P.M.------------|			  
e|-------------------------------------------------|
B|------------------5p0-----------5p0--0--3---5----|
G|------------------4p0-----------4p0--0--2---4----|
D|--2---2---2---2---------0---0--------------------|
A|--2---2---2---2---------0---0--------------------|
E|--0---0---0---0----------------------------------|

 P.M.------------|		                           ~~~~~
e|------------------------------------------------|
B|------------------5p0-----------5p0--0--3-------|
G|------------------4p0-----------4p0--0--2-------|
D|--2---2---2---2---------0---0-------------------|
A|--2---2---2---2---------0---0-------------------|
E|--0---0---0---0---------------------------------|

 P.M.------------|			  
e|-------------------------------|
B|------------------5p0----0--3--|
G|------------------4p0----0--2--|
D|--2---2---2---2----------------|
A|--2---2---2---2----------------|
E|--0---0---0---0----------------|

e|----------------------------------2------|---------------------------------|
B|----------------------------------3------|---------------------------------|
G|--------0---2---0---2-------------2------|--0---2---0---2------------------|
D|--------0---2---0---2-------------0------|--0---2---0---2------------2--2--|
A|------------0-------0---3p0--------------|------0-------0--3p0-------2--2--|
E|--15\-------------------------3----------|-----------------------3---0--0--|

e|----------------------------2------|-------------------------------|
B|----------------------------3------|-------------------------------|
G|--0---2---0---2-------------2------|--0---2---0---2----------------|
D|--0---2---0---2-------------0------|--0---2---0---2------------2---|
A|------0-------0---3p0--------------|------0-------0--3p0-------2---|
E|------------------------3----------|-----------------------3---0---|

Outro Solo
e|-----------------------------|---------------------------------------------|
B|-----------------------3brb--|-----8---10p8-------8---10--------13---15p13-|
G|--------------2--------------|--9-------------9------------14--------------|
D|---------------\-------------|---------------------------------------------|
A|----------------\--/---------|---------------------------------------------|
E|--0------/-------\/----------|---------------------------------------------|
     \    /
      \  /
       \/

e|----------------------12--|--15p12------15p12------15p12------15p12-------|
B|-------13---15---15-------|---------15---------15---------15---------15---|
G|--14----------------------|-----------------------------------------------|
D|--------------------------|-----------------------------------------------|
A|--------------------------|-----------------------------------------------|
E|--------------------------|-----------------------------------------------|

e|--15p12------15p12------15p12------15p12------20b--|
B|---------15---------15---------15---------15-------|
G|---------------------------------------------------|
D|---------------------------------------------------|
A|---------------------------------------------------|
E|---------------------------------------------------|

e|--20pbr---20---19---17----------------------------------5------|
B|-------------------------20br---17---20--------17\3/5-------5--|
G|------------------------------------------19-------------------|
D|---------------------------------------------------------------|
A|---------------------------------------------------------------|
E|---------------------------------------------------------------|

e|-----------------------------------------------|---------------------------|
B|--8br---5---8b---8---5---8br---5---8b---8---5--|---------------------------|
G|-----------------------------------------------|--7b---12T/---7pbr---5---7-|
D|-----------------------------------------------|---------------------------|
A|-----------------------------------------------|---------------------------|
E|-----------------------------------------------|---------------------------|

e|-----------------------10pbr---8----------------------|
B|------8---10-------8---------------10br---8-------10--|
G|--9------------9------------------------------9-------|
D|------------------------------------------------------|
A|------------------------------------------------------|
E|------------------------------------------------------|

e|--5----------------------------------------------------|
B|------8---5--------------------------------------------|
G|--------------7---7p5----------------------------------|
D|------------------------7p5---7p5----------------------|
A|------------------------------------7---7--------------|
E|--------------------------------------------0------/---|
                                               \    /
                                                \  /
                                                 \/

e|--5---5---5---5---5-----5----5----5--------------|
B|--5---5---5---5---5-----5----5----5--------------|
G|--6---6---6---6---6-----6----6----6----------2---|
D|--7---7---7---7---7-----7----7----7----------2---|
A|--7---7---7---7---7-----7----7----7----------0---|
E|---------------------------------------12\-------|

e|--5------------------------------------5--------------------------------|
B|------8---7---5----------------------------8p5--------------------------|
G|------------------7---5---7---5---7b-------------7---5------------------|
D|---------------------------------------------------------7---5----------|
A|-----------------------------------------------------------------5---4--|
E|------------------------------------------------------------------------|

e|-------------------5----|
B|-------------------5----|
G|--7---6\/\/\/\/----6----|
D|-------------------7----|
A|-------------------7----|
E|-------------------5----|


Guitar II

Intro
e|----------------------------2--|-----------------------------------|
B|----------------------------3--|-----------------------------------|
G|------------------5p0-------2--|------------------5p0---2----------|
D|--7---7---5---7---5p0---7---0--|--5---7---5---7---5p0---2---2---2--|
A|--7---7---5---7---------7------|--5---7---5---7---------0---2---2--|
E|-------------------------------|----------------------------0---0--|

1st Solo
e|------------------------------2--|---------------------------------|
B|------------------------------3--|---------------------------------|
G|------2-------2---5---2---0---2--|------2-------2---5---2---0------|
D|------2-------2---5---2---0---0--|------2-------2---5---2---0---2--|
A|------0-------0-------0----------|------0-------0-------0-------2--|
E|--3-------3----------------------|--3-------3-------------------0--|

e|--0-----3/----------|
B|--0-----3/----------|
G|--1-----0------1----|
D|--2------------2----|
A|---------------2----|
E|---------------0----|
1st Verse

e|-------------------------------------|-------------------------------2-----|
B|-------------------------------------|-------------------------------3-----|
G|------2-------2-----------0----------|-------2-------2---5---2---0---2-----|
D|------2-------2-------0--------------|-------2-------2---5---2---0---0-----|
A|------0-------0-------------------2--|-------0-------0-------0-----------3-|
E|--3-------3-------3-----------2---0--|---3-------3-------------------------|

e|-------------------------------------|------------------------------2----|
B|-------------------------------------|------------------------------3----|
G|------2-------2-----------0----------|--0---2---0---2---5---2---0---2----|
D|------2-------2-------0--------------|--0---2---0---2---5---2---0---0----|
A|------0-------0-------------------2--|------0-------0-------0------------|
E|--3-------3-------3-----------2---0--|-----------------------------------|

1st Chorus
 P.M.------------|			                         ~~~~
e|-----------------------------------------------|
B|-----------------------------------------------|
G|------------------9p0-----------9p0---0---7----|
D|------------------9p0-----------9p0---0---7----|
A|--7---7---7---7--------------------------------|
E|--0---0---0---0---------0---0------------------|
  P.M.------------|
e|-------------------------------------------------|
B|-------------------------------------------------|
G|------------------9p0-----------9p0---0---7---9--|
D|------------------9p0-----------9p0---0---7---9--|
A|--7---7---7---7----------------------------------|
E|--0---0---0---0---------0---0--------------------|

 P.M.------------|			                        ~~~~
e|-----------------------------------------------|
B|-----------------------------------------------|
G|------------------9p0-----------9p0---0---7----|
D|------------------9p0-----------9p0---0---7----|
A|--7---7---7---7--------------------------------|
E|--0---0---0---0---------0---0------------------|

 P.M.------------|			    
e|---------------------------------|
B|---------------------------------|
G|------------------9p0---0---7----|
D|------------------9p0---0---7----|
A|--7---7---7---7------------------|
E|--0---0---0---0------------------|

e|------------------------------------2--|-----------------------------------|
B|------------------------------------3--|-----------------------------------|
G|------------2-------2---5---2---0---2--|------2-------2---5---2---0--------|
D|------------2-------2---5---2---0---0--|------2-------2---5---2---0---2--2-|
A|------------0-------0-------0----------|------0-------0-------0-------2--2-|
E|--15\---3-------3----------------------|--3-------3-------------------0--0-|

e|------------------------------2--|---------------------------------|
B|------------------------------3--|---------------------------------|
G|------2-------2---5---2---0---2--|------2-------2---5---2---0------|
D|------2-------2---5---2---0---0--|------2-------2---5---2---0---2--|
A|------0-------0-------0----------|------0-------0-------0-------2--|
E|--3-------3----------------------|--3-------3-------------------0--|

e|--0-----3/----------|
B|--0-----3/----------|
G|--1-----0------1----|
D|--2------------2----|
A|---------------2----|
E|---------------0----|

2nd Verse
e|-------------------------------------|-------------------------------2-----|
B|-------------------------------------|-------------------------------3-----|
G|------2-------2-----------0----------|-------2-------2---5---2---0---2-----|
D|------2-------2-------0--------------|-------2-------2---5---2---0---0-----|
A|------0-------0-------------------2--|-------0-------0-------0-----------3-|
E|--3-------3-------3-----------2---0--|---3-------3-------------------------|

e|-------------------------------------|-------------------------------2-----|
B|-------------------------------------|-------------------------------3-----|
G|------2-------2-----------0----------|-------2-------2---5---2---0---2-----|
D|------2-------2-------0--------------|-------2-------2---5---2---0---0-----|
A|------0-------0-------------------2--|-------0-------0-------0-----------3-|
E|--3-------3-------3-----------2---0--|---3-------3-------------------------|

e|-------------------------------------|-------------------------------2-----|
B|-------------------------------------|-------------------------------3-----|
G|------2-------2-----------0----------|-------2-------2---5---2---0---2-----|
D|------2-------2-------0--------------|-------2-------2---5---2---0---0-----|
A|------0-------0-------------------2--|-------0-------0-------0-----------3-|
E|--3-------3-------3-----------2---0--|---3-------3-------------------------|

e|-------------------------------------|----------------------------2----|
B|-------------------------------------|----------------------------3----|
G|------2-------2-----------0----------|--0---2---0---2-------------2----|
D|------2-------2-------0--------------|--0---2---0---2-------------0----|
A|------0-------0-------------------2--|------0-------0---3p0------------|
E|--3-------3-------3-----------2---0--|------------------------3--------|

2nd Chorus
 P.M.------------|			                        ~~~~
e|-----------------------------------------------|
B|-----------------------------------------------|
G|------------------9p0-----------9p0---0---7----|
D|------------------9p0---0---0---9p0---0---7----|
A|--7---7---7---7---------0---0------------------|
E|--0---0---0---0--------------------------------|

  P.M.------------|
e|-------------------------------------------------|
B|-------------------------------------------------|
G|------------------9p0-----------9p0---0---7---9--|
D|------------------9p0---0---0---9p0---0---7---9--|
A|--7---7---7---7---------0---0--------------------|
E|--0---0---0---0----------------------------------|
            
 P.M.------------|			                          ~~~~
e|-----------------------------------------------|
B|-----------------------------------------------|
G|------------------9p0-----------9p0---0---7----|
D|------------------9p0---0---0---9p0---0---7----|
A|--7---7---7---7---------0---0------------------|
E|--0---0---0---0--------------------------------|

  P.M.------------|
e|-------------------------------------------------|
B|-------------------------------------------------|
G|------------------9p0-----------9p0---0---7---9--|
D|------------------9p0---0---0---9p0---0---7---9--|
A|--7---7---7---7---------0---0--------------------|
E|--0---0---0---0----------------------------------|

 P.M.------------|			                          ~~~~
e|-----------------------------------------------|
B|-----------------------------------------------|
G|------------------9p0-----------9p0---0---7----|
D|------------------9p0---0---0---9p0---0---7----|
A|--7---7---7---7---------0---0------------------|
E|--0---0---0---0--------------------------------|

  P.M.------------|
e|-------------------------------------------------|
B|-------------------------------------------------|
G|------------------9p0-----------9p0---0---7---9--|
D|------------------9p0---0---0---9p0---0---7---9--|
A|--7---7---7---7---------0---0--------------------|
E|--0---0---0---0----------------------------------|

 P.M.------------|			                         ~~~~
e|-----------------------------------------------|
B|-----------------------------------------------|
G|------------------9p0-----------9p0---0---7----|
D|------------------9p0---0---0---9p0---0---7----|
A|--7---7---7---7---------0---0------------------|
E|--0---0---0---0--------------------------------|

  P.M.------------|
e|----------------------------------|
B|----------------------------------|
G|------------------9p0---0---7-----|
D|------------------9p0---0---7-----|
A|--7---7---7---7-------------------|
E|--0---0---0---0-------------------|

e|------------------------------------2--|-----------------------------------|
B|------------------------------------3--|-----------------------------------|
G|------------2-------2---5---2---0---2--|------2-------2---5---2---0--------|
D|------------2-------2---5---2---0---0--|------2-------2---5---2---0---2--2-|
A|------------0-------0-------0----------|------0-------0-------0-------2--2-|
E|--15\---3-------3----------------------|--3-------3-------------------0--0-|

e|------------------------------2--|-------------------------------------|
B|------------------------------3--|-------------------------------------|
G|------2-------2---5---2---0---2--|------2-------2---5---2---0----------|
D|------2-------2---5---2---0---0--|------2-------2---5---2---0---2---2--|
A|------0-------0-------0----------|------0-------0-------0-------2---2--|
E|--3-------3----------------------|--3-------3-------------------0---0--|

Bridge
e|--0---3-----------|--2----------------------|----------------------------|
B|--0---3-----------|--3----------------------|--3--2--2--2----3--2--2--2--|
G|--1---0---1---2---|--2-------------------2--|--2--2--3--2----2--2--3--2--|
D|--2-------2---2---|--0-------------------2--|--4--2--4--2----4--2--4--2--|
A|----------2---0---|------3p2---3p2-------0--|----------------------------|
E|----------0-------|------------------3------|----------------------------|

e|-------------------------------------------|-------------------------------|
B|-------------------------------------------|-------------------------------|
G|----------------------------------0--1--2--|--5-----5-------5-----5------2-|
D|--3--3--3--3--3--3---2--0--1--2---------2--|--5--7--5--7----5--7--5--7---2-|
A|--3--3--3--3--3--3---2------------------0--|-----7-----7-------7-----7-----|
E|--1--1--1--1--1--1---0---------------------|-------------------------------| 

e|--2---3----------------------|----------------------------|
B|--3---3----------------------|--3--2--2--2----3--2--2--2--|
G|--2---2-------------------2--|--2--2--3--2----2--2--3--2--|
D|--0---0-------------------2--|--4--2--4--2----4--2--4--2--|
A|----------3p2---3p2-------0--|----------------------------|
E|----------------------3------|----------------------------|

e|-------------------------------------------|-------------------|
B|-------------------------------------------|-------------------|
G|----------------------------------0--1--2--|-------------------|
D|--3--3--3--3--3--3---2--0--1--2---------2--|--5-----5-----5----|
A|--3--3--3--3--3--3---2------------------0--|--5-----5-----5----|
E|--1--1--1--1--1--1---0---------------------|--3-----3-----3----|

Main Solo
   P.M.------------------------------|
e|---------------------------------------------------------|
B|---------------------------------------------------------|
G|------------------------------------------------------7--|
D|--------------------------------------------------7---7--|
A|--9---9---9---9---9---9---9---9---9---7---8---9----------|
E|--7---7---7---7---7---7---7---7---7----------------------|

   P.M.------------------------------|
e|-----------------------------------------------------|
B|-----------------------------------------------------|
G|-----------------------------------------------------|
D|------------------------------------------7---7---9--|
A|--9---9---9---9---9---9---9---9---9---9---5---5---7--|
E|--7---7---7---7---7---7---7---7---7---7--------------|

   P.M.------------------------------|
e|---------------------------------------------------------|
B|---------------------------------------------------------|
G|------------------------------------------------------7--|
D|--------------------------------------------------7---7--|
A|--9---9---9---9---9---9---9---9---9---7---8---9----------|
E|--7---7---7---7---7---7---7---7---7----------------------|

   P.M.---------------------------------|
e|-----------------------------------------------------|
B|-----------------------------------------------------|
G|-----------------------------------------------------|
D|------------------------------------------7---7---9--|
A|--9---9---9---9---9---9---9---9---9---9---5---5---7--|
E|--7---7---7---7---7---7---7---7---7---7--------------|

   P.M.------------------------------|
e|---------------------------------------------------------|
B|---------------------------------------------------------|
G|------------------------------------------------------7--|
D|--------------------------------------------------7---7--|
A|--9---9---9---9---9---9---9---9---9---7---8---9----------|
E|--7---7---7---7---7---7---7---7---7----------------------|

   P.M.------------------------------|
e|-----------------------------------------------------|
B|-----------------------------------------------------|
G|-----------------------------------------------------|
D|------------------------------------------7---7---9--|
A|--9---9---9---9---9---9---9---9---9---9---5---5---7--|
E|--7---7---7---7---7---7---7---7---7---7--------------|

  P.M.------------------------------|
e|---------------------------------------------------------|
B|---------------------------------------------------------|
G|------------------------------------------------------7--|
D|--------------------------------------------------7---7--|
A|--9---9---9---9---9---9---9---9---9---7---8---9----------|
E|--7---7---7---7---7---7---7---7---7----------------------|

   P.M.--------------------------|
e|------------------------------------------|
B|------------------------------------------|
G|------------------------------------------|
D|------------------------------------2-----|
A|--9---9---9---9---9---9---9---9-----2-----|
E|--7---7---7---7---7---7---7---7-----0-----|

Breakdown

  P.M.---------------------------------------------------------|
e|-----------------------------|-----------------|-------------|
B|-----------------------------|-----------------|-------------|
G|-----------------------------|-----------------|-------------|
D|----------5---------------5--|----------5------|-------------|
A|--5---7-------7---5---7------|--5---7-------7--|--5---7------|
E|--0---0-------0---0---0------|--0---0-------0--|--0---0---3--|

  P.M.-------------------------------------------------------------------|
e|-----------------|-----------------|-----------------|-----------------|
B|-----------------|-----------------|-----------------|-----------------|
G|-----------------|-----------------|-----------------|-----------------|
D|----------5------|--------------5--|----------5------|-----------------|
A|--5---7-------7--|--5---5---7------|--5---7-------7--|--5---5---7------|
E|--0---0-------0--|--0---0---0------|--0---0-------0--|--0---0---0---3--|

  P.M.---------------------------------------------------------|
e|-----------------------------|-----------------|-------------|
B|-----------------------------|-----------------|-------------|
G|-----------------------------|-----------------|-------------|
D|----------5---------------5--|----------5------|-------------|
A|--5---7-------7---5---7------|--5---7-------7--|--5h7h5------|
E|--0---0-------0---0---0------|--0---0-------0--|----------3--|

  P.M.-------------------------------------------------------------|
e|-----------------------------|-----------------|-----------------|
B|-----------------------------|-----------------|-----------------|
G|-----------------------------|-----------------|-----------------|
D|----------5---------------5--|----------5------|-----------------|
A|--5---7-------7---5---7------|--5---7-------7--|--5h7h5----------|
E|--0---0-------0---0---0------|--0---0-------0--|----------3---3--|

e|----------------------------2--|-----------------------------------|
B|----------------------------3--|-----------------------------------|
G|------------------5p0-------2--|------------------5p0---2----------|
D|--7---7---5---7---5p0---7---0--|--5---7---5---7---5p0---2---2---2--|
A|--7---7---5---7---------7------|--5---7---5---7---------0---2---2--|
E|-------------------------------|----------------------------0---0--|

e|------------------------------2--|---------------------------------|
B|------------------------------3--|---------------------------------|
G|------2-------2---5---2---0---2--|------2-------2---5---2---0------|
D|------2-------2---5---2---0---0--|------2-------2---5---2---0---2--|
A|------0-------0-------0----------|------0-------0-------0-------2--|
E|--3-------3----------------------|--3-------3-------------------0--|

e|--0-----3----------|
B|--0-----3----------|
G|--1-----0-----1----|
D|--2-----------2----|
A|--------------2----|
E|--------------0----|

3rd Verse
e|-------------------------------------|-------------------------------2-----|
B|-------------------------------------|-------------------------------3-----|
G|------2-------2-----------0----------|-------2-------2---5---2---0---2-----|
D|------2-------2-------0--------------|-------2-------2---5---2---0---0-----|
A|------0-------0-------------------2--|-------0-------0-------0-----------3-|
E|--3-------3-------3-----------2---0--|---3-------3-------------------------|

e|-------------------------------------|------------------------------2------|
B|-------------------------------------|------------------------------3------|
G|------2-------2-----------0----------|--0---2---0---2---5---2---0---2------|
D|------2-------2-------0--------------|--0---2---0---2---5---2---0---0------|
A|------0-------0-------------------2--|------0-------0-------0-----------3--|
E|--3-------3-------3-----------2---0--|-------------------------------------|

e|-------------------------------------|-------------------------------2-----|
B|-------------------------------------|-------------------------------3-----|
G|------2-------2-----------0----------|-------2-------2---5---2---0---2-----|
D|------2-------2-------0--------------|-------2-------2---5---2---0---0-----|
A|------0-------0-------------------2--|-------0-------0-------0-----------3-|
E|--3-------3-------3-----------2---0--|---3-------3-------------------------|

e|-------------------------------------|----------------------------2----|
B|-------------------------------------|----------------------------3----|
G|------2-------2-----------0----------|--0---2---0---2-------------2----|
D|------2-------2-------0--------------|--0---2---0---2-------------0----|
A|------0-------0-------------------2--|------0-------0---3p0------------|
E|--3-------3-------3-----------2---0--|------------------------3--------|

3rd Chorus
   P.M.------------|		                        ~~~~
e|-----------------------------------------------|
B|-----------------------------------------------|
G|------------------9p0-----------9p0---0---7----|
D|------------------9p0-----------9p0---0---7----|
A|--7---7---7---7--------------------------------|
E|--0---0---0---0---------0---0------------------|

  P.M.------------|
e|-------------------------------------------------|
B|-------------------------------------------------|
G|------------------9p0-----------9p0---0---7---9--|
D|------------------9p0-----------9p0---0---7---9--|
A|--7---7---7---7----------------------------------|
E|--0---0---0---0---------0---0--------------------|

 P.M.------------|			                          ~~~~
e|-----------------------------------------------|
B|-----------------------------------------------|
G|------------------9p0-----------9p0---0---7----|
D|------------------9p0-----------9p0---0---7----|
A|--7---7---7---7--------------------------------|
E|--0---0---0---0---------0---0------------------|
  P.M.------------|
e|-------------------------------------------------|
B|-------------------------------------------------|
G|------------------9p0-----------9p0---0---7---9--|
D|------------------9p0-----------9p0---0---7---9--|
A|--7---7---7---7----------------------------------|
E|--0---0---0---0---------0---0--------------------|

 P.M.------------|			                         ~~~~
e|-----------------------------------------------|
B|-----------------------------------------------|
G|------------------9p0-----------9p0---0---7----|
D|------------------9p0-----------9p0---0---7----|
A|--7---7---7---7--------------------------------|
E|--0---0---0---0---------0---0------------------|

  P.M.------------|
e|-------------------------------------------------|
B|-------------------------------------------------|
G|------------------9p0-----------9p0---0---7---9--|
D|------------------9p0-----------9p0---0---7---9--|
A|--7---7---7---7----------------------------------|
E|--0---0---0---0---------0---0--------------------|

 P.M.------------|			                          ~~~~
e|-----------------------------------------------|
B|-----------------------------------------------|
G|------------------9p0-----------9p0---0---7----|
D|------------------9p0-----------9p0---0---7----|
A|--7---7---7---7--------------------------------|
E|--0---0---0---0---------0---0------------------|

 P.M.------------|			    
e|---------------------------------|
B|---------------------------------|
G|------------------9p0---0---7----|
D|------------------9p0---0---7----|
A|--7---7---7---7------------------|
E|--0---0---0---0------------------|

Outro
e|----------------------------------2--|-----------------------------------|
B|----------------------------------3--|-----------------------------------|
G|------------------------5p0-------2--|------------------5p0---2----------|
D|--------7---7---5---7---5p0---7---0--|--5---7---5---7---5p0---2---2---2--|
A|--------7---7---5---7---------7------|--5---7---5---7---------0---2---2--|
E|--15\--------------------------------|----------------------------0---0--|

e|------------------------------2--|----------------------------------|
B|------------------------------3--|----------------------------------|
G|------2-------2---5---2---0---2--|------2-------2---5---2---0-------|
D|------2-------2---5---2---0---0--|------2-------2---5---2---0---2---|
A|------0-------0-------0----------|------0-------0-------0-------2---|
E|--3-------3----------------------|--3-------3-------------------0---|

e|--0-----3-----------|------------------------------2--|
B|--0-----3-----------|------------------------------3--|
G|--1-----0------1----|------2-------2---5---2---0---2--|
D|--2------------2----|------2-------2---5---2---0---0--|
A|---------------2----|------0-------0-------0----------|
E|---------------0----|--3-------3----------------------|

e|---------------------------------|------------------------------2--|
B|---------------------------------|------------------------------3--|
G|------2-------2---5---2---0------|------2-------2---5---2---0---2--|
D|------2-------2---5---2---0---2--|------2-------2---5---2---0---0--|
A|------0-------0-------0-------2--|------0-------0-------0----------|
E|--3-------3-------------------0--|--3-------3----------------------|

e|---------------------------------|------------------------------2--|
B|---------------------------------|------------------------------3--|
G|------2-------2---5---2---0------|------2-------2---5---2---0---2--|
D|------2-------2---5---2---0---2--|------2-------2---5---2---0---0--|
A|------0-------0-------0-------2--|------0-------0-------0----------|
E|--3-------3-------------------0--|--3-------3----------------------|

e|---------------------------------|------------------------------2--|
B|---------------------------------|------------------------------3--|
G|------2-------2---5---2---0------|------2-------2---5---2---0---2--|
D|------2-------2---5---2---0---2--|------2-------2---5---2---0---0--|
A|------0-------0-------0-------2--|------0-------0-------0----------|
E|--3-------3-------------------0--|--3-------3----------------------|

e|----------------------------------0--|----------------------|
B|----------------------------------0--|----------------------|
G|------2-------2---5---2---0-------1--|--2---2---2---2---2---|
D|------2-------2---5---2---0---2------|--2---2---2---2---2---|
A|------0-------0-------0-------2------|--0---0---0---0---0---|
E|--3-------3-------------------0------|----------------------|
                      
e|------------------------------------|
B|------------------------------------|
G|--2---2---2---------2------2----2---|
D|--2---2---2---------2------2----2---|
A|--0---0---0---------0------0----0---|
E|--------------12\-------------------|
                      \
                      \
 
************************************
| /   slide up
| \   slide down
| h   hammer-on
| p   pull-off
| ~   vibrato
| +   harmonic
| x   Mute note
| b   Bend
| pb  Pre-bend
| br  Bend release
| pbr Pre-bend release
| brb Bend release bend
| \   Tremelo Picking
  \
************************************
Intro

A  G  A  N.C  D

A  G  A  N.C. E 

A  G  A  N.C  D

A  G  A  N.C. E  G  E

1st Verse

          A      G    A               G       F#   E   A   G  A  N.C.  D  C
Well it's seems that everybody has to tell me what to do 

       A      G        A            G           F#     E   A  G  A  N.C. D  C
and I didn't listen to them so you know I won't listen to you 

1st Chorus

E                                    EVII  G   D
'cause you know that I'm down right crazy as hell 

E                 EVII   G  D   EVII
do what I want to do 

E                             EVII     G    D
go Stand on the street corner begging for change 

E               D
end up being a fool 

N.C.
I'm warped and I'm comin' to you 

A  G  A  N.C  D

A  G  A  N.C. E 

A  G  A  N.C  D

A  G  A  N.C. E  G  E

2nd Verse

        A      G   A      G       F#     E  A  G  A  N.C.  D  C
Yes I'm out on my own and nobody speaks for me 

      A     G     A          G        F#  E  A    G   A  N.C.  D  C
and I don't want much but to keep on riding free 

         A       G    A     G         F#      E    A   G   A  N.C  D  C
and it's too bad you can't live your life for yourself

     A   G   A                   G         F#   E  A    G  A  N.C.  D  C
man come on make a stand and you know your nobody else 

2nd Chorus

E                                    EVII  G   D
'cause you know that I'm down right crazy as hell 

E                 EVII   G  D   EVII
do what I want to do 

E                             EVII     G    D
go Stand on the street corner begging for change 

E               EVII   G  D  EVII
end up being a fool 

E                             EVII    G    D
I'm an easy going man with a simple little plan 

E                         EVII G  D  EVII
you know I aint no-bodys tool 

E                     EVII  G   D
just becuase I don't talk too much 

E                   D
don't think I'm to cool 

N.C.
I'm warped and I'm coming to you 

A  G  A  N.C  D

A  G  A  N.C. E 

A  G  A  N.C  D

A  G  A  N.C. E  G  E

Bridge

         D      N.C.              A   D  A  D  A  D  A  D  A
Well I'm warped and I'm outta my mind 

      F                    E                    A   C  A  C  A  C  A  C  A   
and I love to boogie woogie when the feeling is right 

         D      N.C.                A    D  A  D  A  D  A   D  A
well I'm warped and I'm burning my brain 

     F                  E                              A     G
why don't you come with me and ride this rock n roll train 

ohh chho choo lit-tle mama 

Solo

B  N.C. D

B   D  E

B  N.C. D

B   D  E

B  N.C. D

B   D  E

B  N.C. D

B   E

Breakdown

N.C.

A  G  A  N.C  D

A  G  A  N.C. E 

A  G  A  N.C  D

A  G  A  N.C. E  G  E

3rd Verse

         A      G   A       G      F#     E   A  G  A  N.C. D  C
Well I'm out on my own and nobody speaks for me 

       A    G    A            G       F#   E  A  G  A  N.C.  D  C
and I don't want much but to keep on riding free 

      A      G    A          G     F#  E  A   G  A  N.C.  D  C
Well freedom is a fire that never goes away 

         A    G    A       G       F#   E  A  G  A  N.C.  D  C
and you carry the flame until your dying day 

3rd Chorus
E                                 EVII  G   D
but you know that we're down right crazy as hell 

E                 EVII   G  D   EVII
do what we want to do 

E                           EVII     G    D
Stand on the street corner begging for change 

E               EVII   G  D  EVII
end up being a fool 

E                             EVII    G    D
I'm an easy going man with a simple little plan 

E                         EVII G  D  EVII
you know I aint no-bodys tool 

E                     EVII  G   D
just becuase I don't talk too much 

E                   D
don't think I'm too Cruel 

N.C.
I'm warped and I'm coming to you 

A  G  A  N.C  D

A  G  A  N.C. E 

A  G  A  N.C  D

A  G  A  N.C. E  G  E

Outro

A  G  A  N.C  D

A  G  A  N.C. E 

A  G  A  N.C  D

A  G  A  N.C. E 

A  G  A  N.C  D

A  G  A  N.C. E 

A  G  A  N.C  D

A  G  A  N.C. E 

A





Comments


Popular Blackfoot tabs & chords
Highway Song Chords
Dancin Man Tabs
Highway Song Tabs
Highway Song 1 Tabs
Highway Song2 Tabs
Left Turn On A Red Light Tabs
Train Train Tabs
Train Train 2 Tabs
Train, Train Tabs
Wishing Well Tabs


Song lyrics



↑ Back to top | Tablatures and chords are parodies/interpretations of the original songs. You may use it for private study, scholarship, research or language learning purposes only
© 2014 AZChords.com Contact us | Privacy policy | DMCA | Add/correct tabs | Request tabs | Top 50 tabs