>
 >
Train, Train

Train, Train Bass Tabs

Blackfoot - Train, Train chords, tabs, tablatures, lyrics

Guitar lessons | Add/correct | Request | Top 50 tabs Artists:  A B C D E F G H I J K L M N O P Q R S T U V W X Y Z 0-9

Train, Train Bass Tabs – Blackfoot

CD, Sheet music, Poster

Do you like Train, Train? Share with your friends now
Bass TabsTabs

TRAIN TRAIN (Bassline)





 

 

Gtr I (E A D G) - 'Staff'


  Q=120
 4/4
  Gtr I
  W          W          W          W
|----------|----------|----------|------|
|----------|----------|----------|------|
|----------|----------|----------|------|
|----------|----------|----------|------|


  W          W          W          W
|----------|----------|----------|------|
|----------|----------|----------|------|
|----------|----------|----------|------|
|----------|----------|----------|------|


  W          W          W          W
|----------|----------|----------|------|
|----------|----------|----------|------|
|----------|----------|----------|------|
|----------|----------|----------|------|


  W          W          W          W
|----------|----------|----------|------|
|----------|----------|----------|------|
|----------|----------|----------|------|
|----------|----------|----------|------|


  W          W          W          W
|----------|----------|----------|------|
|----------|----------|----------|------|
|----------|----------|----------|------|
|----------|----------|----------|------|


  W          H    S S S S S S S S   S S E +Q   E S S S S S S
|----------|----------------------|---------------------------|
|----------|----------------------|---------------------------|
|----------|--------------4-2-----|-----0-(0)-----------------|
|----------|------0-2-4-------4-2-|-0----------0-0-0-3-0-3-0--|


  +E  S S E E E S S S S S S   +E  S S E E E S S S S S S
|---------------------------|---------------------------|
|---------------------------|---------------------------|
|---------------------------|---------------------------|
|-(0)-0-0-3-2-0-0-0-3-0-3-0-|-(0)-0-0-3-2-0-0-0-3-0-3-0-|


  +E  S S E E S S S S S S S S
|-----------------------------|
|-----------------------------|
|---------------------4-2-----|
|-(0)-0-0-3-2-0-2-4-------4-2-|


  S S E +Q   E S S S S S S   +E  S S E E E S S S S S S
|--------------------------|---------------------------|
|--------------------------|---------------------------|
|-----0-(0)----------------|---------------------------|
|-0----------0-0-0-3-0-3-0-|-(0)-0-0-3-2-0-0-0-3-0-3-0-|


  +E  S S E E E S S S S S S
|----------------------------|
|----------------------------|
|----------------------------|
|-(0)-0-0-3-2-0-0-0-3-0-3-0--|


  +E  S S E E E S S S S S S
|---------------------------|
|---------------------------|
|---------------------------|
|-(0)-0-0-3-2-0-0-0-3-0-3-0-|


  +E  E S S E E S S S S E   +S  S E S S E E S S S S E
|-------------------------|---------------------------|
|-------------0-0-0-0---0-|-(0)---0-------------------|
|-----------2-------------|---------4---2-0-0-0-0---0-|
|-(0)-0-3-----------------|---------------------------|


  +S  S E E E E S S S S S S   +E  S S E E E S S S S S S   +E  E E E E. S S S E
|---------------------------|---------------------------|----------------------|
|---------------------------|---------------------------|----------------------|
|-(0)---0-------------------|---------------------------|-----------2--2-2---2-|
|---------3-2-0-0-0-3-0-3-0-|-(0)-0-0-3-2-0-0-0-3-0-3-0-|-(0)-0-3-2------------|


  +S  S E E E E. S S S E   Q  E E E S S S S S S   +E  S S E E S S S S S S S S
|------------------------|----------------------|------------------------------|
|------------------------|----------------------|------------------------------|
|-(2)---0-2-4-5--5-4---2-|-0--------------------|---------------------4-2------|
|------------------------|----3-2-0-0-0-3-0-3-0-|-(0)-0-0-3-2-0-2-4-------4-2--|


  S S E +Q   E S S S S S S   +E  S S E E E S S S S S S
|--------------------------|---------------------------|
|--------------------------|---------------------------|
|-----0-(0)----------------|---------------------------|
|-0----------0-0-0-3-0-3-0-|-(0)-0-0-3-2-0-0-0-3-0-3-0-|


  +E  S S E E E S S S S S S
|----------------------------|
|----------------------------|
|----------------------------|
|-(0)-0-0-3-2-0-0-0-3-0-3-0--|


  +E  S S E E E S S S S S S   +E  E S S E E. S S S E   E E S S E E. S S S E
|---------------------------|------------------------|-----------------------|
|---------------------------|-------------0--0-0---0-|---0-------------------|
|---------------------------|-----------2------------|-0---4---2-0--0-0---0--|
|-(0)-0-0-3-2-0-0-0-3-0-3-0-|-(0)-0-3----------------|-----------------------|


  E E E E E S S S S S S   +E  S S E E E S S S S S S   +E  S S E E E. S S S E
|-----------------------|---------------------------|------------------------|
|-----------------------|---------------------------|------------------------|
|---0-------------------|---------------------------|-------------2--2-2---2-|
|-----3-2-0-0-0-3-0-3-0-|-(0)-0-0-3-2-0-0-0-3-0-3-0-|-(0)-0-0-3-2------------|


  +S  S E E E E. S S S E   Q  E E E S S S S S S   +E  S S E E E S S S S S S
|------------------------|----------------------|---------------------------|
|------------------------|----------------------|---------------------------|
|-(2)---0-2-4-5--5-4---2-|-0--------------------|---------------------------|
|------------------------|----3-2-0-0-0-3-0-3-0-|-(0)-0-0-3-2-0-0-0-3-0-3-0-|


  +E  E E E E. S S S E   E E E E E. S S S E   S S E E E E S S S S S S
|----------------------|--------------------|-------------------------|
|----------------------|--------------------|-------------------------|
|----------------------|---------0--0-------|-----0-------------------|
|-(0)-0-3-4-5--5-2---2-|-0-0-2-0------2---0-|-2-----3-2-0-0-0-3-0-3-0-|


  +E  S S E E E S S S S S S   +E  E E E E. S S S E   E E E E E. S S S E
|---------------------------|----------------------|--------------------|
|---------------------------|----------------------|--------------------|
|---------------------------|----------------------|---------0--0-------|
|-(0)-0-0-3-2-0-0-0-3-0-3-0-|-(0)-0-3-4-5--5-2---2-|-0-0-2-0------2---0-|


  S S E E E E S S S S S S
|-------------------------|
|-------------------------|
|-----0-------------------|
|-2-----3-2-0-0-0-3-0-3-0-|


  +E  S S E E E S S S S S S   +E  E S S E E. S S S E
|---------------------------|-------------------------|
|---------------------------|-------------0--0-0---0--|
|---------------------------|-----------2-------------|
|-(0)-0-0-3-2-0-0-0-3-0-3-0-|-(0)-0-3-----------------|


  E E S S E E. S S S E   E E E E E S S S S S S   +E  E E E E S S S S S S
|----------------------|-----------------------|--------------------------|
|---0------------------|-----------------------|--------------------------|
|-0---4---2-0--0-0---0-|---0-------------------|--------------------------|
|----------------------|-----3-2-0-0-0-3-0-3-0-|-(0)-0-3-2-0-0-0-3-0-3-0--|


  +E  E S S E E. S E E   E E E E E. S E E   E E E E E S S S S S S
|----------------------|------------------|-----------------------|
|----------------------|------------------|-----------------------|
|----------------------|---------0--0-----|---0-------------------|
|-(0)-0-3---4-5--5-2-0-|---0-2-0------2-3-|-----3-2-0-0-0-3-0-3-0-|


  +E  S S E E E S S S S S S   +E  E E E E. S E E   E E E E E. S E E
|---------------------------|--------------------|------------------|
|---------------------------|--------------------|------------------|
|---------------------------|--------------------|---------0--0-----|
|-(0)-0-0-3-2-0-0-0-3-0-3-0-|-(0)-0-3-4-5--5-2-0-|---0-2-0------2-3-|


  E E E E E S S S S S S   +E  S S E E E S S S S S S   +E  E E E E. S S S E
|-----------------------|---------------------------|-----------------------|
|-----------------------|---------------------------|-----------0--0-0---0--|
|---0-------------------|---------------------------|---------2-------------|
|-----3-2-0-0-0-3-0-3-0-|-(0)-0-0-3-2-0-0-0-3-0-3-0-|-(0)-0-3---------------|


  E E S S E E. S E E   E E E E E S S S S S S   +E  S S E E S S S S S S S S
|--------------------|-----------------------|-----------------------------|
|---0----------------|-----------------------|-----------------------------|
|-0---4---2-0--0-4-2-|-0-2-------------------|---------------------4-2-----|
|--------------------|-----3-2-0-0-0-3-0-3-0-|-(0)-0-0-3-2-0-2-4-------4-2-|


  S S E +Q   E S S S S S S   +E  S S E E E S S S S S S
|--------------------------|---------------------------|
|--------------------------|---------------------------|
|-----0-(0)----------------|---------------------------|
|-0----------0-0-0-3-0-3-0-|-(0)-0-0-3-2-0-0-0-3-0-3-0-|


  +E  S S E E E S S S S S S
|----------------------------|
|----------------------------|
|----------------------------|
|-(0)-0-0-3-2-0-0-0-3-0-3-0--|


  +E  S S E E E S S S S S S   +E  E S S E Q  S S E   +S  S E E E E. S S S E
|---------------------------|----------------------|-------------------------|
|---------------------------|-------------0--0---0-|-(0)---0-----------------|
|---------------------------|-----------2----------|---------4-2-0--0-0---0--|
|-(0)-0-0-3-2-0-0-0-3-0-3-0-|-(0)-0-3--------------|-------------------------|


  E E E E E S S S S S S   +E  S S E E E S S S S S S   +E  S S E E E. S S S E
|-----------------------|---------------------------|------------------------|
|-----------------------|---------------------------|------------------------|
|---0-------------------|---------------------------|-------------2--2-2---2-|
|-----3-2-0-0-0-3-0-3-0-|-(0)-0-0-3-2-0-0-0-3-0-3-0-|-(0)-0-0-3-2------------|


  +S  S E E E E. S S S E   E E E E E S S S S S S   +E  S S E E E S S S S S S
|------------------------|-----------------------|---------------------------|
|------------------------|-----------------------|---------------------------|
|-(2)---0-2-4-5--5-4---2-|-0-2-------------------|---------------------------|
|------------------------|-----3-2-0-0-0-3-0-3-0-|-(0)-0-0-3-2-0-0-0-3-0-3-0-|


  +E  S S E E E. S S S E   +S  S E E E E. S S S E   E E E E E S S S S S S
|------------------------|------------------------|-----------------------|
|------------------------|------------------------|-----------------------|
|-------------2--2-2---2-|-(2)---0-2-4-5--5-4---2-|-0-2-------------------|
|-(0)-0-0-3-2------------|------------------------|-----3-2-0-0-0-3-0-3-0-|


  +E  S S E E E S S S S S S   +E  S S E E E. S E E   E E E E E. S E E
|---------------------------|----------------------|-------------------|
|---------------------------|----------------------|-------------------|
|---------------------------|----------------------|---------0--0------|
|-(0)-0-0-3-2-0-0-0-3-0-3-0-|-(0)-0-0-3-4-5--5-2-0-|---0-2-0------2-3--|


  E E E E E S S S S S S   +E  S S E E E S S S S S S   +E  S S E E E. S E E
|-----------------------|---------------------------|-----------------------|
|-----------------------|---------------------------|-----------------------|
|---0-------------------|---------------------------|-------------0--0------|
|-----3-2-0-0-0-3-0-3-0-|-(0)-0-0-3-2-0-0-0-3-0-3-0-|-(0)-0-0-3-2------2-0--|


  E E E E E. S E E   E E E E E S S S S S S   +E  S S E E E S S S S S S
|------------------|-----------------------|---------------------------|
|------------------|-----------------------|---------------------------|
|---------0--0-----|---0-------------------|---------------------------|
|---0-2-0------2-3-|-----3-2-0-0-0-3-0-3-0-|-(0)-0-0-3-2-0-0-0-3-0-3-0-|


  +E  S S E E H      +W           +W           +W
|------------------|------------|------------|--------|
|------------------|------------|------------|--------|
|-------------0----|-(0)--------|-(0)--------|-(0)----|
|-(0)-0-0-3-2------|------------|------------|--------|


  +H     H      E E +S  S E +H       +W           +W
|-------------|--------------------|------------|--------|
|-------------|--------------------|------------|--------|
|-(0)---------|--------------------|------------|--------|
|-------------|---2-(2)---0-(0)----|-(0)--------|-(0)----|


  +W           +H     +H
|------------|---------------*|
|------------|---------------*|
|------------|---------------*|
|-(0)--------|-(0)----(0)----*|






Duration Legend
---------------
W - whole; H - half; Q - quarter; E - 8th; S - 16th; T - 32nd; X - 64th; a - acciaccatura
+ - note tied to previous; . - note dotted; .. - note double dotted
Uncapitalized letters represent notes that are staccato (1/2 duration)
Irregular groupings are notated above the duration line
Duration letters will always appear directly above the note/fret number it represents the
duration for.  Duration letters with no fret number below them represent rests.  Multi-
bar rests are notated in the form Wxn, where n is the number of bars to rest for.  Low
melody durations appear below the staff

Tablature Legend
----------------
 h   - hammer-on
 p   - pull-off
 b   - bend
 pb  - pre-bend
 r   - bend release (if no number after the r, then release immediately)
 /\  - slide into or out of (from/to "nowhere")
 s   - legato slide
 S   - shift slide
 - natural harmonic
[n]  - artificial harmonic
n(n) - tapped harmonic
 ~   - vibrato
 tr  - trill
 T   - tap
 TP  - trem. picking
 PM  - palm muting
\n/  - tremolo bar dip; n = amount to dip
 \n  - tremolo bar down
 n/  - tremolo bar up
/n\  - tremolo bar inverted dip
 =   - hold bend; also acts as connecting device for hammers/pulls
 <> - volume swell (louder/softer)
 x   - on rhythm slash represents muted slash
 o   - on rhythm slash represents single note slash

Misc Legend
-----------
 |  - bar
||  - double bar
||o - repeat start
o|| - repeat end
*|  - double bar (ending)
 :  - bar (freetime)
 $  - Segno
 &  - Coda
Tempo markers -  = BPM(8/16=s8/s16), where s8 = swing 8ths, s16 = swing 16ths





Comments


Popular Blackfoot tabs & chords
Highway Song Chords
Dancin Man Tabs
Flyin High Tabs
Good Morning Tabs
Highway Song 2 Tabs
Not Another Maker Tabs
On The Run Tabs
Too Hard To Handle Tabs
Train, Train Tabs
Try A Little Harder Tabs


Song lyrics



↑ Back to top | Tablatures and chords are parodies/interpretations of the original songs. You may use it for private study, scholarship, research or language learning purposes only
© 2014 AZChords.com Contact us | Privacy policy | DMCA | Add/correct tabs | Request tabs | Top 50 tabs