>
 >
Too Hard To Handle

Too Hard To Handle Guitar Tabs

Blackfoot - Too Hard To Handle chords, tabs, tablatures, lyrics

Guitar lessons | Add/correct | Request | Top 50 tabs Artists:  A B C D E F G H I J K L M N O P Q R S T U V W X Y Z 0-9

Too Hard To Handle Guitar Tabs – Blackfoot

CD, Sheet music, Poster

Do you like Too Hard To Handle? Share with your friends now
Tabs
2.                               Marauder-1981
3.                Words and Music Rick Medlocke and Jakson Spires

Tuning:Standard

Intro: Guitar I
e|--------------------------------------------|-------------------------|
B|--------------------------------------------|-------------------------|
G|--2---2---7br-------7br---7---5---2---------|--2---2---7br-------7br--|
D|--2---2---7br---7---7br---7---5---2---------|--2---2---7br---7---7br--|
A|--0---0---------0-----------------0---------|--0---0---------0--------|
E|--------------------------------------0--3--|-------------------------|

Intro: Guitar II
e|--------------------------------------------|-------------------------|
B|--------------------------------------------|-------------------------|
G|--2---2-------------------------------------|--2---2------------------|
D|--2---2-------------------------------------|--2---2------------------|
A|--0---0-------------------------------------|--0---0------------------|
E|--------------------------------------------|-------------------------|

Guitar I
e|---------------|
B|------8/10-----|
G|--0---7/9------|
D|--0------------|
A|---------------|
E|---------------|

Guitar II
e|---------------|--------------------------------------------|
B|---------------|--------------------------------------------|
G|---------------|--2---2---7br-------7br---7---5---2---------|
D|---------------|--2---2---7br---7---7br---7---5---2---------|
A|---------------|--0---0---------0-----------------0---------|
E|---------------|--------------------------------------0--3--|

Guitar II
e|------------------------------2--|-*------------------|
B|------------------------------3--|-*------------------|
G|--2---2---7br-----7---5---2---2--|-*------------------|
D|--2---2---7br-----7---5---2---0--|-*------------------|
A|--0---0--------0----------0------|-*------------------|
E|---------------------------------|-*----------12\0----|

1st Verse: Both Guitars
e|---------------------|---------------------|---------------------|
B|---------------------|---------------------|---------------------|
G|---------------------|---------------------|---------------------|
D|---------------------|---------------------|---------------------|
A|--4---4---4---4---4--|--4---4---4---4---4--|--4---4---4---4---4--|
E|--0---2---0---0---2--|--0---2---0---0---2--|--0---2---0---0---2--|

e|---------------------|-----------------|------------------------|
B|---------------------|-----------------|------------------------|
G|---------------------|-----------------|--7/9\---7---7/9---7/9--|
D|---------------------|-----------------|--7/9\---7---7/9---7/9--|
A|--4---4---4---4---4--|--4---4---2---2--|--5/7\---5---5/7---5/7--|
E|--0---2---0---0---2--|--2---2---0---0--|------------------------|

e|-----------------|---------------------------|
B|-----------------|---------------------------|
G|--7---7/9---7/9--|--7---7/9---7/9------------|
D|--7---7/9---7/9--|--7---7/9---7/9------------|
A|--5---5/7---5/7--|--5---5/7---5/7--------7---|
E|-----------------|------------------8h9------|

 1st Chorus : Both Guitars
e|----------------------------------------|----------------------------------|
B|----------------------------------------|------------------------8/10------|
G|--2---7br-------7br---7---5---2---------|-2--2--7br-------7br--0--7/9------|
D|--2---7br---7---7br---7---5---2---------|-2--2--7br---7---7br--0-----------|
A|--0---------0-----------------0---------|-0--0--------0--------------------|
E|----------------------------------0--3--|------------------------------0-3-|

e|----------------------------------------|----------------------------------|
B|----------------------------------------|------------------------8/10\-10\-|
G|--2---2--7br-------7br--7--5---2--------|-2--2--7br-------7br--0--7/9\-9\--|
D|--2---2--7br----7--7br--7--5---2--------|-2--2--7br---7---7br--0-----------|
A|--0---0---------0--------------0--------|-0--0--------0--------------------|
E|----------------------------------0--3--|----------------------------------|

2nd Verse: Both Guitars
e|---------------------|---------------------|---------------------|
B|---------------------|---------------------|---------------------|
G|---------------------|---------------------|---------------------|
D|---------------------|---------------------|---------------------|
A|--4---4---4---4---4--|--4---4---4---4---4--|--4---4---4---4---4--|
E|--0---2---0---0---2--|--0---2---0---0---2--|--0---2---0---0---2--|

e|---------------------|-----------------|------------------------|
B|---------------------|-----------------|------------------------|
G|---------------------|-----------------|--7/9\---7---7/9---7/9--|
D|---------------------|-----------------|--7/9\---7---7/9---7/9--|
A|--4---4---4---4---4--|--4---4---2---2--|--5/7\---5---5/7---5/7--|
E|--0---2---0---0---2--|--2---2---0---0--|------------------------|

e|-----------------|---------------------------|
B|-----------------|---------------------------|
G|--7---7/9---7/9--|--7---7/9---7/9------------|
D|--7---7/9---7/9--|--7---7/9---7/9------------|
A|--5---5/7---5/7--|--5---5/7---5/7--------7---|
E|-----------------|------------------8h9------|

2nd Chorus : Both Guitars
e|----------------------------------------|----------------------------------|
B|----------------------------------------|------------------------8/10------|
G|--2---7br-------7br---7---5---2---------|-2--2--7br-------7br--0--7/9------|
D|--2---7br---7---7br---7---5---2---------|-2--2--7br---7---7br--0-----------|
A|--0---------0-----------------0---------|-0--0--------0--------------------|
E|----------------------------------0--3--|------------------------------0-3-|

e|--------------------------------------------|
B|--------------------------------------------|
G|--2---2---7br-------7br---7---5---2---------|
D|--2---2---7br---7---7br---7---5---2---------|
A|--0---0---------0-----------------0---------|
E|--------------------------------------0--3--|

1st  Bridge: Both Guitars (palm mute through out)
e|--------------------------|--------------------------|
B|--------------------------|--------------------------|
G|--------------------------|--------------------------|
D|--3--3--3--3--3--3--3--3--|--3--3--3--3--3--3--------|
A|--3--3--3--3--3--3--3--3--|--3--3--3--3--3--3-----0--|
E|--1--1--1--1--1--1--1--1--|--1--1--1--1--1--1--3-----|

e|--------------------------|--------------------------------|
B|--------------------------|--------------------------------|
G|--------------------------|--------------------------------|
D|--------------------------|-----------------------------2--|
A|--2--2--2--2--2--2--2--2--|--2--2--2--2--2--2--------2-----|
E|--0--0--0--0--0--0--0--0--|--0--0--0--0--0--0--3--4--------|

Pre Solo: Both guitars
e|----------------------------------------|-------------------------------|
B|----------------------------------------|------------------------8/10---|
G|--2---7br-------7br---7---5---2---------|-2--2--7br-------7br--0--7/9---|
D|--2---7br---7---7br---7---5---2---------|-2--2--7br---7---7br--0--------|
A|--0---------0-----------------0---------|-0--0--------0-----------------|
E|----------------------------------0--3--|-------------------------------|

1st Solo: Guitar II
e|-----------------------------------------|
B|-----------------------------------------|
G|--9---6---7---------------------------2--|
D|--9---6---7---------------------------2--|
A|--7---4---5-----4---4-4---4-4---4-4---0--|
E|--------------0h2---0h2---0h2---0h2------|

e|-----------------------------------------|---------------------------------|
B|-----------------------------------------|---------------------------------|
G|--9---6---7------------------------------|-9--9--9--9--9--9--9--9--9--9--9-|
D|--9---6---7---------------------------2--|-9--9--9--9--9--9--9--9--9--9--9-|
A|--7---4---5-----4---4-4---4-4---4-4---2--|-7--7--7--7--7--7--7--7--7--7--7-|
E|--------------0h2---0h2---0h2---0h2---0--|---------------------------------|

e|---------------------------------------|----------------------------------|
B|---------------------------------------|------------------------8/10------|
G|--2--2--7br-------7br--7--5--2---------|-2--2--7br-------7br--0--7/9------|
D|--2--2--7br---7---7br--7--5--2---------|-2--2--7br---7---7br--0-----------|
A|--0--0--------0--------------0---------|-0--0--------0--------------------|
E|---------------------------------0--3--|------------------------------0-3-|

e|----------------------------------------|----------------------------------|
B|----------------------------------------|------------------------8/10\-10\-|
G|--2---2--7br-------7br--7--5---2--------|-2--2--7br-------7br--0--7/9\-9\--|
D|--2---2--7br----7--7br--7--5---2--------|-2--2--7br---7---7br--0-----------|
A|--0---0---------0--------------0--------|-0--0--------0--------------------|
E|----------------------------------0--3--|----------------------------------|

3rd Verse: Both Guitars
e|---------------------|---------------------|---------------------|
B|---------------------|---------------------|---------------------|
G|---------------------|---------------------|---------------------|
D|---------------------|---------------------|---------------------|
A|--4---4---4---4---4--|--4---4---4---4---4--|--4---4---4---4---4--|
E|--0---2---0---0---2--|--0---2---0---0---2--|--0---2---0---0---2--|

e|---------------------|-----------------|------------------------|
B|---------------------|-----------------|------------------------|
G|---------------------|-----------------|--7/9\---7---7/9---7/9--|
D|---------------------|-----------------|--7/9\---7---7/9---7/9--|
A|--4---4---4---4---4--|--4---4---2---2--|--5/7\---5---5/7---5/7--|
E|--0---2---0---0---2--|--2---2---0---0--|------------------------|

e|-----------------|---------------------------|
B|-----------------|---------------------------|
G|--7---7/9---7/9--|--7---7/9---7/9------------|
D|--7---7/9---7/9--|--7---7/9---7/9------------|
A|--5---5/7---5/7--|--5---5/7---5/7--------7---|
E|-----------------|------------------8h9------|

3rd  Chorus : Both Guitars
e|----------------------------------------|----------------------------------|
B|----------------------------------------|------------------------8/10------|
G|--2---7br-------7br---7---5---2---------|-2--2--7br-------7br--0--7/9------|
D|--2---7br---7---7br---7---5---2---------|-2--2--7br---7---7br--0-----------|
A|--0---------0-----------------0---------|-0--0--------0--------------------|
E|----------------------------------0--3--|------------------------------0-3-|

e|----------------------------------------|
B|----------------------------------------|
G|--2---2--7br-------7br--7--5---2--------|
D|--2---2--7br----7--7br--7--5---2--------|
A|--0---0---------0--------------0--------|
E|----------------------------------0--3--|
3rd Bridge: Both guitars repeat Once
e|--------------------------|--------------------------|
B|--------------------------|--------------------------|
G|--------------------------|--------------------------|
D|--3--3--3--3--3--3--3--3--|--3--3--3--3--3--3--------|
A|--3--3--3--3--3--3--3--3--|--3--3--3--3--3--3-----0--|
E|--1--1--1--1--1--1--1--1--|--1--1--1--1--1--1--3-----|

e|--------------------------|--------------------------|
B|--------------------------|--------------------------|
G|--------------------------|--------------------------|
D|--------------------------|--------------------------|
A|--2--2--2--2--2--2--2--2--|--2--2--2--2--2--2--2--2--|
E|--0--0--0--0--0--0--0--0--|--0--0--0--0--0--0--0--0--|

Horn Section: Both Guitars
e|--------------------|-------------------------|---------------------|
B|--------------------|-------------------------|---------------------|
G|--------------------|-------------------------|---------------------|
D|------3---------3---|------3---------3--------|------2-----------2--|
A|--------------------|-------------------3-----|---------------------|
E|--1------1--1-------|--1------1--1---------1--|--0-------0--0-------|

e|---------------------------|--------------------|-------------------------|
B|---------------------------|--------------------|-------------------------|
G|---------------------------|--------------------|-------------------------|
D|------2-----------2--------|------3---------3---|------3---------3--------|
A|---------------------2-----|--------------------|-------------------3-----|
E|--0-------0--0----------0--|--1------1--1-------|--1------1--1---------1--|

e|---------------------------|------------------------|
B|---------------------------|------------------------|
G|---------------------------|------------------------|
D|------2-----------2--------|------2--2--2--2--2--2--|
A|---------------------2-----|------------------------|
E|--0-------0--0----------0--|--0---------------------|

2nd Solo: Guitar I
e|--------------------|-------------------------|---------------------|
B|--------------------|-------------------------|---------------------|
G|--------------------|-------------------------|---------------------|
D|------3---------3---|------3---------3--------|------2-----------2--|
A|--------------------|-------------------3-----|---------------------|
E|--1------1--1-------|--1------1--1---------1--|--0-------0--0-------|

					(Play this section four times)
e|---------------------------|--------------------------|
B|---------------------------|--------------------------|
G|---------------------------|--------------------------|
D|------2-----------2--------|--3--3--3--3--3--3--3--3--|
A|---------------------2-----|--3--3--3--3--3--3--3--3--|
E|--0-------0--0----------0--|--1--1--1--1--1--1--1--1--|

e|--------------------------|--------------------------|
B|--------------------------|--------------------------|
G|--------------------------|--------------------------|
D|--3--3--3--3--3--3--------|--------------------------|
A|--3--3--3--3--3--3-----0--|--2--2--2--2--2--2--2--2--|
E|--1--1--1--1--1--1--3-----|--0--0--0--0--0--0--0--0--|

(Fourth time skip)           (Play this fourth time)
e|--------------------------|--------------------------|
B|--------------------------|--------------------------|
G|--------------------------|--------------------------|
D|--------------------------|--------------------------|
A|--2--2--2--2--2--2--2--2--|--2--2--2--2--2--2--------|
E|--0--0--0--0--0--0--0--0--|--0--0--0--0--0--0--0--3--|

Outro: Guitar I
e|----------------------------------------|----------------------------------|
B|----------------------------------------|-------------------------8/10\----|
G|--2---2--7br-------7br--7--5---2--------|-2--2--7br-------7br--0--7/9\-----|
D|--2---2--7br----7--7br--7--5---2--------|-2--2--7br---7---7br--0-----------|
A|--0---0---------0--------------0--------|-0--0--------0--------------------|
E|----------------------------------0--3--|------------------------------0--3|

Guitar II
e|----------------------------------------|------------------------|
B|----------------------------------------|------------------------|
G|----------------------------------------|-2---2------------------|
D|----------------------------------------|-2---2------------------|
A|----------------------------------------|-0---0------------------|
E|----------------------------------------|------------------------|

Both guitars									           []
e|----------------------------------------|----------------------------2-----|
B|----------------------------------------|----------------------------3-----|
G|--2---2--7br-------7br--7--5---2--------|-2--2--7br-------7br--2-----2-----|
D|--2---2--7br----7--7br--7--5---2--------|-2--2--7br---7---7br--2-----0-----|
A|--0---0---------0--------------0--------|-0--0--------0--------0-----------|
E|----------------------------------0--3--|----------------------------------|

   [ ]
e|---------------|
B|---------------|
G|--2-------2----|
D|--2-------2----|
A|--0-------0----|
E|---------------|

Intro Solo:Guitar I
e|--------15-15b-----------------------------5--5------------------------|
B|--15b------------15pbr--13h15p13------------------8--5-----------------|
G|----------------------------------14---7b---------------+7br--5--7--5--|
D|-----------------------------------------------------------------------|
A|-----------------------------------------------------------------------|
E|-----------------------------------------------------------------------|

e|---------------|
B|---------------|
G|--+7br--5--7---|
D|---------------|
A|---------------|
E|---------------|

1st Solo: Guitar I
e|-------------------------------------------------------------------8---|
B|---------v------------------------------------t---------------10-------|
G|--7b--6--61/2b--6--7--6--7--6--7--6--7p6--7b--12--7pbr--5--------------|
D|-----------------------------------------------------------7-----------|
A|-----------------------------------------------------------------------|
E|-----------------------------------------------------------------------|

e|--10b--9--91/2b--9--10--9--10--9--10--10br--8----------------------------|
B|-----------------------------------------------10--------8-----10-----8--|
G|---------------------------------------------------9--9-----9------9-----|
D|-------------------------------------------------------------------------|
A|-------------------------------------------------------------------------|
E|-------------------------------------------------------------------------|

e|----------------------|------------------------------------|
B|----------------------|--8---8--8---8--8---8---------------|
G|--7p5-----5-----------|--7b--7--7b--7--7b--7br--5--7p5-----|
D|-------7------7p5-----|---------------------------------5--|
A|-------------------7--|------------------------------------|
E|----------------------|------------------------------------|

e|--------------------------------------------8----------------------------|
B|--8---8--8---8--8---8----8h10--8h10--8--10-----10--10--10p8--------------|
G|--7b--7--7b--7--7b--7br--------------------------------------9--7--5-----|
D|----------------------------------------------------------------------7--|
A|-------------------------------------------------------------------------|
E|-------------------------------------------------------------------------|

e|----------5-------------------------------------|
B|-------------8p5--------------------------------|
G|--5--7b-----------7--5--7b--7pbr--7p5--7p5------|
D|--------------------------------------------7---|
A|------------------------------------------------|
E|------------------------------------------------|

2nd Solo: Guitar II
e|---------------------------------------------------------------------------|
B|--9--10--10--12--12br--10--12--10--9--10--10br-----8h10--8--10br--10--8----|
G|------------------------------------------------9------------------------9-|
D|---------------------------------------------------------------------------|
A|---------------------------------------------------------------------------|
E|---------------------------------------------------------------------------|

e|-------10-------12--10-----------------------------------------------------|
B|--10b------10b----------10--8--10--8-----10--8-----------------------------|
G|--------------------------------------9---------9--7-----9--7-----------7--|
D|------------------------------------------------------9--------9--7--9-----|
A|---------------------------------------------------------------------------|
E|---------------------------------------------------------------------------|

e|-----------------|--------------------------------|-----------------------|
B|--------------8--|--------------------------------|--15---15---15---15----|
G|--9--9--7--9-----|------14br--12--14------12--14--|--14b--14b--14b--14b---|
D|-----------------|--14----------------14----------|-----------------------|
A|-----------------|--------------------------------|-----------------------|
E|-----------------|--------------------------------|-----------------------|

e|------------------------|-----------------------|-----------------v---|
B|--15--------v-----------|--15---15---15---15----|-----------------15--|
G|--14br--12--14--12--14--|--14b--14b--14b--14b---|--14br--12-----------|
D|------------------------|-----------------------|------------14-------|
A|------------------------|-----------------------|---------------------|
E|------------------------|-----------------------|---------------------|

e|---------------------------------------------|------------15b--15--15b---|
B|--15---15---15---15--------------------------|---------------------------|
G|--14b--14b--14b--14br--14br--12----------12--|--14br--12-----------------|
D|---------------------------------14--14------|---------------------------|
A|---------------------------------------------|---------------------------|
E|---------------------------------------------|---------------------------|

Outro Solo: Guitar I
e|-----------------------------------------------------------------------|
B|--8b--8--5-------------------------t-----------------------------------|
G|------------7br--5--7p5--7p5--7bh--12--7pbr--7--5----------------------|
D|---------------------------------------------------7--5----------------|
A|---------------------------------------------------------5--3----------|
E|----------------------------------------------------------------3/5----|


************************************

| /   slide up
| \   slide down
| h   hammer-on
| p   pull-off
| v   vibrato
| +   Pinch harmonic
| x   Mute note
| b   Bend
| b1/2 Half bend
| pb  Pre-bend
| br  Bend release
| pbr Pre-bend release
| brb Bend release bend
| t   Tap
************************************
Intro

A D C D C A E G
A D C D C A E G
A D C D C A G E
A D C D C A D

1st Verse

F#/e F# F#/e  F#
Down          south

F#/E F#  F#/e  F#
south of the border

F#/E F# F#/e  F#  F#/e  F# E
at      a     new sun rise well a

        D   E  D    E   D    E
working woman hates law and order

D  E     D      E   E    D      E   D
OO those chaquitas with incredible thighs

1st Chorus

A  D        C  D  C    A  E G
   Too hard    to handle

A         D        C    A   E G
  they're too hard for you

A D           C    A  E G
  Too hard to handle

A         D        C       D   C     A
  they're too hard they're too tough for you

2nd Verse

F#/E  F#   F#/E  F#
Small time gambler

F#/E  F#   F#/E F#
lays down his money

F#/E  F#  F#/E  F#  F#/E F#  F#/E F#
to play some five card stud

E                D    E
but the big time winner

D     E  D        E
really was the loser

D    E    D   E        D     E  D  E A
he caught a case of an unlucky love

2nd Chorus

D       C D  C    A E G
Too hard to handle

A  D  C D      C    A   E G
   too hard for you

A  D          C     A
  Too hard to handle

1st Bridge

F
cause sweet Lolita's hotter than a pepper

E
you know her pepper's gonna burn you in two

Pre Solo

A D C D C A E G
A D C D C A E G

Solo

E Db D F#/E F# F#/E F# F#/E F# F#/E F# A
E Db D F#/E F# F#/E F# F#/E F# F#/E F# E
A D C D C A E G
A D C D C A E G
A D C D C A E G

3rd Verse

F#/E    F#    F#/E   F#
she's a young man's dream

F#/E   F#      F#/E    F#
every mother's nightmare

F#/E   F#    F#/E   F#   F#/E  F# E
pure woman through and through

D      E    D   E
don't take no chances

D  E    D    E   D    E    D    E   D  E       D     E
on hot romances such as this one it may happen to you

A      D   C  D      A E G
  Too hard to handle

A  D        C     A  E G
too hard for you

A   D      C  D      A E G
  Too hard to handle

2nd Bridge

F
'cause there's no future with a snake eyed lover

E
she's hung up on those ups and downs

F
but if your lonley think you're the only

E
her love's the best it's the hottest in town

Horn Section

F E F E

2nd Solo

F E F E F E F E F E

Outro
A D C D C A E G

G E  A  D      C D   C   A E G
Yes ah Too hard too Handle
A D        C       D  C D    A
  Too hard they're too hard





Comments


Popular Blackfoot tabs & chords
Train Train Bass Tabs
Highway Song Chords
Born To Rock And Roll Tabs
Dream On Tabs
Dry County Tabs
Every Man Should Know Queenie 1 Tabs
Highway Song 1 Tabs
Indian World Tabs
Not Another Maker Tabs
Train, Train Tabs


Song lyrics



↑ Back to top | Tablatures and chords are parodies/interpretations of the original songs. You may use it for private study, scholarship, research or language learning purposes only
© 2014 AZChords.com Contact us | Privacy policy | DMCA | Add/correct tabs | Request tabs | Top 50 tabs