>
 >
Street Fighter

Street Fighter Guitar Tabs

Blackfoot - Street Fighter chords, tabs, tablatures, lyrics

Guitar lessons | Add/correct | Request | Top 50 tabs Artists:  A B C D E F G H I J K L M N O P Q R S T U V W X Y Z 0-9

Street Fighter Guitar Tabs – Blackfoot

CD, Sheet music, Poster

Do you like Street Fighter? Share with your friends now
Tabs
1. 	Street Fighter-Blackfoot
2.      Tomcattin
3.      Words & Music by
4.      Rick Medlocke & Jakson Spiers


Tuning: EADGBE

Intro
e|-------------------------|---------------------|-------------------|
B|-------------------------|---------------------|-------------------|
G|-------2--2/4----2--2/4--|---3--3/5----2--2/4--|---3--3/5---2--2/4-|
D|-------3--3/5----3--3/5--|---3--3/5----3--3/5--|---3--3/5---3--3/5-|
A|-------3--3/5----3--3/5--|---1--1/3----3--3/5--|---1--1/3---3--3/5-|
E|-12\5--1--1/3----1--1/3--|-------------1--1/3--|------------1--1/3-|

               Verse
e|------------|--------------------------|--------------------|
B|------------|--------------------------|--------------------|
G|-5---5---7--|--------2--2/4----2--2/4--|--3--3/5----2--2/4--|
D|-5---5---7--|--------3--3/5----3--3/5--|--3--3/5----3--3/5--|
A|-3---3---5--|--------3--3/5----3--3/5--|--1--3/5----3--3/5--|
E|------------|--12\5--1--1/3----1--1/3--|------------1--1/3--|


e|--------------------|------------|---------------------------|
B|--------------------|------------|---------------------------|
G|--3--3/5----2--2/4--|-5---5---7--|--------2---2/4----2--2/4--|
D|--3--3/5----3--3/5--|-5---5---7--|--------3---3/5----3--3/5--|
A|--1--1/3----3--3/5--|-3---3---5--|--12\5--3---3/5----3--3/5--|
E|------------1--1/3--|------------|--12\5--1---1/3----1--1/3--|


e|--------------------|--------------------|------------|
B|--------------------|--------------------|------------|
G|--3--3/5----2--2/4--|--3--3/5----2--2/4--|-5---5---7--|
D|--3--3/5----3--3/5--|--3--3/5----3--3/5--|-5---5---7--|
A|--1--1/3----3--3/5--|--1--3/5----3--3/5--|-3---3---5--|
E|------------1--1/3--|------------1--1/3--|------------|

  Chorus    Let chords ring
e|--------------0-3p0------3---2--2---------|-0-------3---2--|
B|--------------0----0-----3---3--3---------|-0-------3---3--|
G|--------------0------0---0---2--2---------|-0---2---0---2--|
D|--------2--2-------------2---0---------0--|-2---2---2---0--|
A|--------2--2-------------3---0-----0h2----|-2---0---3------|
E|-12\5---0--0------------------------------|-0--------------|


		 
e|-------0-3p0----------2--2--------|--0----2-|
B|-------0----0-----3---3--3--------|--0----3-|
G|-------0-----0----0---2--2--------|--0--- 2-|
D|--2--2------------2---0---------0-|--2----0-|
A|--2--2------------3---0-----0h2---|--2------|
E|--0--0----------------------------|--2------|
  2nd verse
e|---------------------------|--------------------|--------------------|
B|---------------------------|--------------------|--------------------|
G|---------2--2/4----2--2/4--|--3--3/5----2--2/4--|--3--3/5----2--2/4--|
D|---------3--3/5----3--3/5--|--3--3/5----3--3/5--|--3--3/5----3--3/5--|
A|---------3--3/5----3--3/5--|--1--3/5----3--3/5--|--1--1/3----3--3/5--|
E|---12\5--1--1/3----1--1/3--|------------1--1/3--|------------1--1/3--|


e|------------|---------------------------|--------------------|
B|------------|---------------------------|--------------------|
G|-5---5---7--|---------2--2/4----2--2/4--|--3--3/5----2--2/4--|
D|-5---5---7--|---------3--3/5----3--3/5--|--3--3/5----3--3/5--|
A|-3---3---5--|---12\5--3--3/5----3--3/5--|--1--1/3----3--3/5--|
E|------------|---12\5--1--1/3----1--1/3--|------------1--1/3--|

                                   Chorus   let chords ring
e|-------------------|------------|-------------0-3p0------3---2--2---------|
B|-------------------|------------|-------------0----0-----3---3--3---------|
G|--3--3/5---2--2/4--|-5---5---7--|-------------0------0---0---2--2---------|
D|--3--3/5---3--3/5--|-5---5---7--|--------2--2------------2---0---------0--|
A|--1--3/5---3--3/5--|-3---3---5--|--------2--2------------3----------0h2---|
E|-----------1--1/3--|------------|-12\5---0--0-----------------------------|

e|---0--------3---2--|-------0-3p0------3---2--2---------|
B|---0--------3---3--|-------0----0-----3---3--3---------|
G|---0----2---0---2--|-------0------0---0---2--2---------|
D|---2----2---2---0--|-2---2------------2---0----------0-|
A|---2----0---3------|-2---2------------3----------0h2---|
E|---0---------------|-0----------------0----------------|
                                         Solo section
e|--0-----------------------------------|-----------------------|
B|--0-----------------------------------|-----------------------|
G|--0---------2---5---4-----------------|--4--4/6--4--4/6-------| 
D|--2---------2---5---4---4--4----------|--5--5/7--5--5/7-------| 
A|--2---------0---3---2---4--4-------2--|--5--5/7--5--5/7-------| 
E|--0---------------------2--2--2h3--0--|--3--3/5--3--3/5---12\-|
  
e|--------------------------------------------------|-----------------------|
B|--------------------------------------------------|-----------------------|
G|-5--5/7---4--4/6--------5--5/7---4--4/6---7--7--9-|--4--4/6--4--4/6-------|
D|-5--5/7---5--5/7--------5--5/7---5--5/7---7--7--9-|--5--5/7--5--5/7-------|
A|-3--3/5---5--5/7--------3--3/5---5--5/7---5--5--7-|--5--5/7--5--5/7-------|
E|----------3--3/5--12\------------3--3/5-----------|--3--3/5--3--3/5---12\-|


e|---------------------------------------------------|
B|---------------------------------------------------|
G|--5--5/7---4--4/6--------5--5/7---4--4/6---7--7--9-|
D|--5--5/7---5--5/7--------5--5/7---5--5/7---7--7--9-|
A|--3--3/5---5--5/7--------3--3/5---5--5/7---5--5--7-|
E|-----------3--3/5--12\------------3--3/5-----------|

e|-------------------------|------------------------------------|
B|-------------------------|------------------------------------|
G|--7--4--4/6---7---4---6--|--------7-----4--4/6---5---5--7-----|
D|--7--5--5/7---7---5---7--|--------7-----5--5/7---5---5--7-----|
A|--5--5--5/7---5---5---7--|--------5-----5--5/7---3---3--5-----|
E|-----3--3/5-------3---5--|--512\--------3--3/5----------------|


e|-------------------------|------------------------------------|
B|-------------------------|------------------------------------|
G|--7--4--4/6---7---4---6--|--------7-----4--4/6---5---5--7-----|
D|--7--5--5/7---7---5---7--|--------7-----5--5/7---5---5--7-----|
A|--5--5--5/7---5---5---7--|--------5-----5--5/7---3---3--5-----|
E|-----3--3/5-------3---5--|--512\--------3--3/5----------------|
  Chorus
e|---------0-3p0------3---2--2---------|--0------------3---2--|
B|---------0----0-----3---3--3---------|--0------------3---3--|
G|---------0-----0----0---2--2---------|--0--------2---0---2--|
D|----2---------------2---0---------0--|--2--------2---2---0--|
A|----2---------------3----------0h2---|--2--------0---3------|
E|----0--------------------------------|--0-------------------|

e|-------0-3p0------3---2--2---------|--0------------3---2--|
B|-------0----0-----3---3--3---------|--0------------3---3--|
G|-------0------0---0---2--2---------|--0--------2---0---2--|
D|----2-------------2---0---------0--|--2--------2---2---0--|
A|----2-------------3----------0h2---|--2--------0---3------|
E|----0------------------------------|--0-------------------|

e|-------0-3p0------3---2--2---------|--0------------3---2--|
B|-------0----0-----3---3--3---------|--0------------3---3--|
G|-------0------0---0---2--2---------|--0--------2---0---2--|
D|----2-------------2---0---------0--|--2--------2---2---0--|
A|----2-------------3----------0h2---|--2--------0---3------|
E|----0------------------------------|--0-------------------|

e|-----0-3p0------3---2--2--------|--0-------------------------------|
B|-----0----0-----3---3--3--------|--0-------------------------------|
G|-----0------0---0---2--2--------|--0------2---5---4----------------| 
D|-2--------------2---0---------0-|--2------2---5---4---4--4---------| 
A|-2--------------3----------0h2--|--2------0---3---2---4--4-------2-| 
E|-0--------------0---------------|--0------------------2--2--2h3--0-|





  First Solo
e|----------------15b/17--|-----------------------------------------------|
B|------------------------|-----------------------------------------------|
G|---------12-------------|--7b/9--7b/9--7b/9hb\7--5--7b/9--5-------------|
D|------------------------|-----------------------------------7-----------|
A|------------------------|-----------------------------------------------|
E|-2/12-------------------|-----------------------------------------------|

e|----5---------------------|--------------15-15--15--15----------15--------|
B|--------8p5---------------|-------13-15b/17-15b-15b-15b-----13--15b--13---|
G|-7b/9-------7hb/9-7p5-----|-9/14-------------------------14------------14-|
D|--------------------------|-----------------------------------------------|
A|-----------------------7--|-----------------------------------------------|
E|--------------------------|-----------------------------------------------|

e|-15p12-15b/--15b\15-15p12-------------------------------|
B|---------------------------15--15p13-----13-------------|
G|-------------------------------------14-----14p12-------|
D|---------------------------------------------------14---|
A|--------------------------------------------------------|
E|--------------------------------------------------------|
  2nd Solo
e|-------------------------------|-------------------8--10--b10-8-----------|
B|-10b/8--10p8------8b/\---------|-10b/8-10-10p8------------------10--8--10-|
G|--------------9---------7p5----|----------------9-------------------------|
D|-----------------------------7-|------------------------------------------|
A|-------------------------------|------------------------------------------|
E|-------------------------------|------------------------------------------|

e|-----------------------|----------------------8--10--|
B|-10p8------------------|-10b/8--10--10p8-------------|
G|-------9--8b/\--7p5----|-------------------9---------|
D|--------------------7--|-----------------------------|
A|-----------------------|-----------------------------|
E|-----------------------|-----------------------------|


| /  slide up
| \  slide down
| h  hammer-on
| p  pull-off
| ~  vibrato
| +  harmoni
| x  Mute note

1st Verse

F     G   F  G    Bb   C  F  G
Well here he come man of the slum 
Bb C   F  G       C    D
walk the streets of asphalt
F   G F    G    Bb    C    F   G   Bb   C  F   G       C   D
spend your time take what you find before the streets get old

chorus
       Em      C D
Street Figther  
         Em                        A    C D
well he fights for what he's been told
        Em     C D
Street fighter  
         Em        D
and your diggin a hole

2nd verse 
       F  G  F   G    Bb   C       F    G
Well I know its hard some day you'll go far
Bb  C  F   G      C        D
cause the dreams get you through
     F    G      F        G     Bb C   F       G
and hard times drive you crazy oh no your not lazy
Bb    C    F     G      C       D
Some day it'll happen just for you

chorus 
         Em     C D
Street fighter  
         Em                         A  C D
well he fights for what he's been told
        Em      C D
Street fighter 
         Em               A     C B F# G E
and he's driven out of control

Solos
              Em     C D
 Yes Street fighter  
          Em                       A    C D
well he fights for what he's been told
              Em     C D        
He's such a fighter 
              Em         A    C D
and you cant fight in a hole
          Em    C D
Street fighter 
          Em                        A   C D
 and he fights for what he's been told
         Em     C D
Street fighter 
          Em              A     C B F# G E
and he's driven out of control





Comments


Popular Blackfoot tabs & chords
Train, Train Bass Tabs
Diary Of A Working Man Tabs
Fire Of The Dragon Tabs
Fox Chase Tabs
Highway Song Tabs
On The Run Tabs
Stars Tabs
Stranger On The Road Tabs
Train Train 1 Tabs
Wishing Well Tabs


Song lyrics



↑ Back to top | Tablatures and chords are parodies/interpretations of the original songs. You may use it for private study, scholarship, research or language learning purposes only
© 2014 AZChords.com Contact us | Privacy policy | DMCA | Add/correct tabs | Request tabs | Top 50 tabs