>
 >
Road Fever

Road Fever Guitar Tabs

Blackfoot - Road Fever chords, tabs, tablatures, lyrics

Guitar lessons | Add/correct | Request | Top 50 tabs Artists:  A B C D E F G H I J K L M N O P Q R S T U V W X Y Z 0-9

Road Fever Guitar Tabs – Blackfoot

CD, Sheet music, Poster

Do you like Road Fever? Share with your friends now
Tabs
2.                              Strikes-1979
3.             Words and Music Rick Medlocke and Jakson Spiers

Tuning: Standard

Guitar I

Intro
e|--------------------------------------------------------3----|
B|--3/5--5--5--5--5--5--5--5\3--3-3-----------------------3----|
G|--2/4--4--4--4--4--4--4--4\2--0h2-----------------------0----|
D|--------------------------------------------0--2p0------0----|
A|-----------------------------------0--1--2----------2---2----|
E|--------------------------------------------------------3----|

e|---------------------------------------------------|
B|---------------------------------------------------|
G|-----------0-----0---------------------2p0--0--2---|
D|--0--0--2--0--2--0--2p0--0h2--0--2--2--2p0--0--2---|
A|--0--0--2-----2-----2p0--0h2--0--2--2----------0---|
E|---------------------------------------------------|

e|-------------------------------------------------|
B|-------------------------------------------------|
G|-------0-----0----------------------2--------2---|
D|--0h2--0--2--0--2p0--0--2--0--2--2--2--2--0--2---|
A|--0h2-----2-----2p0--0--2--0--2--2-----2--0--0---|
E|-------------------------------------------------|

e|-------------------------------------------------|
B|-------------------------------------------------|
G|-------0-----0----------------------2--------2---|
D|--0h2--0--2--0--2p0--0--2--0--2--2--2--2--0--2---|
A|--0h2-----2-----2p0--0--2--0--2--2-----2--0--0---|
E|-------------------------------------------------|

1st Solo
e|-------------------------------------------------------------12--15b--|
B|--12--15--15b--15br--12--14--12--------------------------12-----------|
G|---------------------------------12---------12------15b---------------|
D|-------------------------------------12/14------14--------------------|
A|----------------------------------------------------------------------|
E|----------------------------------------------------------------------|

e|--15br--12------12--12------12--12-------------------------------------|
B|------------15----------15----------15---------------------------------|
G|----------------------------------------14br--12------14------12-------|
D|--------------------------------------------------14------14------14---|
A|-----------------------------------------------------------------------|
E|-----------------------------------------------------------------------|
1st Verse    Play Twice
e|-------------------------------3--3--2---|
B|-------------------------------3--3--3---|
G|-----------0--0--2-------------2--2--2---|
D|--0--2-----0--0--2----0--2---------------|
A|--0--2----------------0--2---------------|
E|-----------------------------------------|

2nd Solo
e|-------------------------------------------------------------------------|
B|-----------------15------------------------------------------15b--15b----|
G|--14b--14b--14b------14br--12--14--14br--12--14--12------12--------------|
D|-----------------------------------------------------14------------------|
A|-------------------------------------------------------------------------|
E|-------------------------------------------------------------------------|

2rd Verse
e|-------------------------------3--3--2---|
B|-------------------------------3--3--3---|
G|-----------0--0--2-------------2--2--2---|
D|--0--2-----0--0--2----0--2---------------|
A|--0--2----------------0--2---------------|
E|-----------------------------------------|

e|-------------------------------3--3--2---|
B|-------------------------------3--3--3---|
G|-----------0--0--2-------------2--2--2---|
D|--0--2-----0--0--2----0--2---------------|
A|--0--2----------------0--2---------------|
E|-----------------------------------------|

e|----------------------------3--3--2-|-----------------------------3--3--2--|
B|----------------------------3--3--3-|-----------------------------3--3--3--|
G|--9--7\----0--0--2--9--7----2--2--2-|--9--7----0--0--2--9--7------2--2--2--|
D|--9--7\----0--0--2--9--7------------|--9--7----0--0--2--9--7---------------|
A|--7--5\-------------7--5------------|--7--5-------------7--5---------------|
E|------------------------------------|--------------------------------------|

1st Pre-Chorus
e|---------------------------------------------------|
B|---------------------------------------------------|
G|--------------7-----------------------7--7--9~~~---|
D|--9--7--9--7--7--7--7--9--9--7--9--7--7--7--9~~~---|
A|--9--7--9--7-----7--7--9--9--7--9--7---------------|
E|---------------------------------------------------|

e|-------------------------------------------------------|
B|-------------------------------------------------------|
G|--------------7------------------------2--2------------|
D|--9--7--9--7--7--7--7--9--9--7--9--7\--2--2------------|
A|--9--7--9--7-----7--7--9--9--7--9--7\--0--0--0--2------|
E|---------------------------------------------------3---|

1st Chorus
e|---------------------------|---------------------------|
B|---------------------------|---------------------------|
G|---------------2--2--2-----|---------------2--2--2-----|
D|--2--------2---2--2--2-----|--2--------2---2--2--2-----|
A|--2------------0--0--0-----|--2------------0--0--0-----|
E|--0--3h4----------------3--|--0--3h4----------------3--|

e|---------------------------|-----------------------------------------------|
B|---------------------------|-----------------------------------------------|
G|---------------2--2--2-----|-----------------------------------------------|
D|--2--------2---2--2--2-----|-5--5--5--5--5--5--5--5--4--4--4--4--4--4--4--4|
A|--2------------0--0--0-----|-5--5--5--5--5--5--5--5--4--4--4--4--4--4--4--4|
E|--0--3h4----------------3--|-3--3--3--3--3--3--3--3--2--2--2--2--2--2--2--2|

e|---------------------------------------------------|
B|---------------------------------------------------|
G|-------0-----0----------------------2--------2--2--|
D|--0h2--0--2--0--2p0--0--2--0--2--2--2--2--0--2--2--|
A|--0h2-----2-----2p0--0--2--0--2--2-----2--0--0--0--|
E|---------------------------------------------------|

Main Solo
e|--------------------------7-------------------------------------------|
B|--10b--10b--10pbr--10--9-----10--9--7---------------------------------|
G|---------------------------------------9--7-----9--7-----------7------|
D|---------------------------------------------9--------9--7--9-----9---|
A|----------------------------------------------------------------------|
E|----------------------------------------------------------------------|

e|-----------------------7---------------------------------------------------|
B|------------10------------10--7--------10-------------------------------12-|
G|--9/11--11------9--9b------------9/11------11\9--7--9br--7--9--7--9/11-----|
D|---------------------------------------------------------------------------|
A|---------------------------------------------------------------------------|
E|---------------------------------------------------------------------------|

e|--------------------------10------5/7--6/7--7--6/7--7--6/7--7--6/7--7---|
B|--10------10--12--10----------12--5/7--6/7--7--6/7--7--6/7--7--6/7--7---|
G|------11--------------11------------------------------------------------|
D|------------------------------------------------------------------------|
A|------------------------------------------------------------------------|
E|------------------------------------------------------------------------|

e|--6/7--7-----------------------------7-----------------10br--10--10p7------|
B|--6/7--7--10p7-----7--------------------10--12p10----------------------10--|
G|----------------9-----9p7--------9b----------------11----------------------|
D|---------------------------9--7--------------------------------------------|
A|---------------------------------------------------------------------------|
E|---------------------------------------------------------------------------|

e|--7---------------------|--------------------------------------------------|
B|-----7--10-----7--------|--------------------------------------------------|
G|------------9-----7--9--|--------------------------------------------------|
D|------------------------|--5--5--5--5--5--5--5--5--4--4--4--4--4--4--4--4--|
A|------------------------|--5--5--5--5--5--5--5--5--4--4--4--4--4--4--4--4--|
E|------------------------|--3--3--3--3--3--3--3--3--2--2--2--2--2--2--2--2--|

e|---------------------------------------------------------------------------|
B|--------------12-------------------------------------------------------12--|
G|------14--14------12------12--14br--12--14p12------12--14br+--12--14b------|
D|--14------------------14-----------------------14--------------------------|
A|---------------------------------------------------------------------------|
E|---------------------------------------------------------------------------|

e|--12------------------15b--15b--17br--17--15-------------------------|
B|------15b--15pbr--12--------------------------17---------------------|
G|--------------------------------------------------2bh--7t--5t--2pbr--|
D|---------------------------------------------------------------------|
A|---------------------------------------------------------------------|
E|---------------------------------------------------------------------|

e|---------------------------------------------|
B|---------------------------------------------|
G|--2p0------------------------2\----------/---|
D|-------2p0---------------------\/\/\/\/\/----|
A|------------2p0------------------------------|
E|-----------------3--0\-----------------------|
                        \
                         \-4

3rd Verse
e|-------------------------------3--3--2---|
B|-------------------------------3--3--3---|
G|-----------0--0--2-------------2--2--2---|
D|--0--2-----0--0--2----0--2---------------|
A|--0--2----------------0--2---------------|
E|-----------------------------------------|

e|-------------------------------3--3--2---|
B|-------------------------------3--3--3---|
G|-----------0--0--2-------------2--2--2---|
D|--0--2-----0--0--2----0--2---------------|
A|--0--2----------------0--2---------------|
E|-----------------------------------------|

e|----------------------------3--3--2-|-----------------------------3--3--2--|
B|----------------------------3--3--3-|-----------------------------3--3--3--|
G|--9--7\----0--0--2--9--7----2--2--2-|--9--7----0--0--2--9--7------2--2--2--|
D|--9--7\----0--0--2--9--7------------|--9--7----0--0--2--9--7---------------|
A|--7--5\-------------7--5------------|--7--5-------------7--5---------------|
E|------------------------------------|--------------------------------------|

Pre-Chorus
e|---------------------------------------------------|
B|---------------------------------------------------|
G|--------------7-----------------------7--7--9~~~---|
D|--9--7--9--7--7--7--7--9--9--7--9--7--7--7--9~~~---|
A|--9--7--9--7-----7--7--9--9--7--9--7---------------|
E|---------------------------------------------------|

e|-------------------------------------------------------|
B|-------------------------------------------------------|
G|--------------7------------------------2--2------------|
D|--9--7--9--7--7--7--7--9--9--7--9--7\--2--2------------|
A|--9--7--9--7-----7--7--9--9--7--9--7\--0--0--0--2------|
E|---------------------------------------------------3---|

2nd Chorus
e|---------------------------|---------------------------|
B|---------------------------|---------------------------|
G|---------------2--2--2-----|---------------2--2--2-----|
D|--2--------2---2--2--2-----|--2--------2---2--2--2-----|
A|--2------------0--0--0-----|--2------------0--0--0-----|
E|--0--3h4----------------3--|--0--3h4----------------3--|

e|---------------------------|----------------------------------------|
B|---------------------------|----------------------------------------|
G|---------------2--2--2-----|----------------------------------------|
D|--2--------2---2--2--2-----|-5--5--5--5--5--5--5--5--4--4--4--4--4--|
A|--2------------0--0--0-----|-5--5--5--5--5--5--5--5--4--4--4--4--4--|
E|--0--3h4----------------3--|-3--3--3--3--3--3--3--3--2--2--2--2--2--|

Outro Solo
e|--12---12---12-------12--------------------------------------------|
B|--15b--15b--15b--15--15br--12--------------------------------------|
G|-----------------------------------14br--12--14------12--14br--12--|
D|-------------------------------14----------------14----------------|
A|-------------------------------------------------------------------|
E|-------------------------------------------------------------------|

e|-----------------------12--15---------------------------------------------|
B|---------------10--12----------14--15-------------------------------------|
G|--14--------/--------------------------12--14----------14br--12--14--12---|
D|----\------/-----------------------------------12--14---------------------|
A|-----\/\/\/---------------------------------------------------------------|
E|--------------------------------------------------------------------------|

e|--------------------------------------------------------|
B|--------------------------------------------------------|
G|--14--14br--12--14--0\--------/\/\/\/\/\/\/\/\/\/\/-----|
D|----------------------\------/--------------------------|
A|-----------------------\----/---------------------------|
E|------------------------\--/----------------------------|
                           \/-2

Intro Reprise
e|--------------------------------------------------------3----|
B|--3/5--5--5--5--5--5--5--5\3--3-3-----------------------3----|
G|--2/4--4--4--4--4--4--4--4\2--0h2-----------------------0----|
D|--------------------------------------------0--2p0------0----|
A|-----------------------------------0--1--2----------2---2----|
E|--------------------------------------------------------3----|

e|--3--3--3--3--3/----|
B|--3--3--3--3--3/----|
G|--0--0--0--0--0-----|
D|--0--0--0--0--0-----|
A|--2--2--2--2--2-----|
E|--------------------|


Guitar II 

Intro
e|---------------------|---------------------|----------------------3---|
B|---------------------|---------------------|----------------------3---|
G|---------------------|---------------------|----------------------0---|
D|---------------------|---------------------|-----------0--2p0-----0---|
A|---------------------|---------------------|--0--1--2----------2--2---|
E|---------------------|---------------------|----------------------3---|


e|-----------------------|----------------|-----------------------|
B|-----------------------|--10--10/-------|-----------------------|
G|-----------------------|--9---9/--------|-----------------------|
D|-----------------------|--7---7/--------|-----------------------|
A|-----------------------|----------------|-----------------------|
E|-----------------------|----------------|-----------------------|

e|------------------------|-------------------------------------------------|
B|------------------------|-------------------------------------------------|
G|------------------------|----------------------------------------------2--|
D|-----------0--2---------|--2----------------------------------2--------2--|
A|--0--1--2--------5bd----|--2---2-2-2----2-2-2----2-2-2-2-2-2--2--2--2--0--|
E|------------------------|--0---0-0-0----0-0-0----0-0-0-0-0-0--0--0--0-----|

1st Solo
e|---------------------------------------------------|
B|---------------------------------------------------|
G|-------0-----0----------------------2--------2--2--|
D|--0h2--0--2--0--2p0--0--2--0--2--2--2--2--0--2--2--|
A|--0h2-----2-----2p0--0--2--0--2--2-----2--0--0--0--|
E|---------------------------------------------------|

e|-------------------------------------------------|
B|-------------------------------------------------|
G|-------0-----0----------------------2--------2---|
D|--0h2--0--2--0--2p0--0--2--0--2--2--2--2--0--2---|
A|--0h2-----2-----2p0--0--2--0--2--2-----2--0--0---|
E|-------------------------------------------------|

1st Verse (Play Twice)
e|---------------------------------------|
B|-----------------------------8--8--7---|
G|-----------5---5--7----------7--7--7---|
D|-----------5---5--7----------7--7--7---|
A|--5--7----------------5--7-------------|
E|--5--7----------------5--7-------------|

e|---------------------------------------------------|
B|---------------------------------------------------|
G|-------0-----0----------------------2--------2--2--|
D|--0h2--0--2--0--2p0--0--2--0--2--2--2--2--0--2--2--|
A|--0h2-----2-----2p0--0--2--0--2--2-----2--0--0--0--|
E|---------------------------------------------------|

2nd Verse
e|---------------------------------------|
B|-----------------------------8--8--7---|
G|-----------5---5--7----------7--7--7---|
D|-----------5---5--7----------7--7--7---|
A|--5--7----------------5--7-------------|
E|--5--7----------------5--7-------------|

e|---------------------------------------|
B|-----------------------------8--8--7---|
G|-----------5---5--7----------7--7--7---|
D|-----------5---5--7----------7--7--7---|
A|--5--7----------------5--7-------------|
E|--5--7----------------5--7-------------|

e|----------------------------------------|
B|------------------------------8--8--7---|
G|--9--7\---------------9--7----7--7--7---|
D|--9--7\----5--5---7---9--7----7--7--7---|
A|--7--5\----5--5---7---7--5--------------|
E|----------------------------------------|

e|---------------------------------------|
B|-----------------------------8--8--7---|
G|--9--7---------------9--7----7--7--7---|
D|--9--7----5--5---7---9--7----7--7--7---|
A|--7--5----5--5---7---7--5--------------|
E|---------------------------------------|

1st Pre-Chorus
e|---------------------------------------------------|
B|---------------------------------------------------|
G|--------------7-----------------------7--7--9~~~---|
D|--9--7--9--7--7--7--7--9--9--7--9--7--7--7--9~~~---|
A|--9--7--9--7-----7--7--9--9--7--9--7---------------|
E|---------------------------------------------------|

e|-------------------------------------------------------|
B|-------------------------------------------------------|
G|--------------7------------------------2--2------------|
D|--9--7--9--7--7--7--7--9--9--7--9--7\--2--2------------|
A|--9--7--9--7-----7--7--9--9--7--9--7\--0--0--0--2------|
E|---------------------------------------------------3---|

1st Chorus
e|---------------------------|---------------------------|
B|---------------------------|---------------------------|
G|---------------2--2--2-----|---------------2--2--2-----|
D|--2--------2---2--2--2-----|--2--------2---2--2--2-----|
A|--2------------0--0--0-----|--2------------0--0--0-----|
E|--0--3h4----------------3--|--0--3h4----------------3--|

e|---------------------------|-----------------------------------------------|
B|---------------------------|-----------------------------------------------|
G|---------------2--2--2-----|-----------------------------------------------|
D|--2--------2---2--2--2-----|-5--5--5--5--5--5--5--5--4--4--4--4--4--4--4--4|
A|--2------------0--0--0-----|-5--5--5--5--5--5--5--5--4--4--4--4--4--4--4--4|
E|--0--3h4----------------3--|-3--3--3--3--3--3--3--3--2--2--2--2--2--2--2--2|

e|---------------------------------------------------|
B|---------------------------------------------------|
G|-------0-----0----------------------2--------2--2--|
D|--0h2--0--2--0--2p0--0--2--0--2--2--2--2--0--2--2--|
A|--0h2-----2-----2p0--0--2--0--2--2-----2--0--0--0--|
E|---------------------------------------------------|

Main Solo
e|----------------------------------|------------------------------------|
B|----------------------------------|------------------------------------|
G|---------9--7---6-----------------|---------9--7---6-------------------|
D|--4-4----9--7---7-----4--5--5--4--|--4-4----9--7---7-----4--x-x-x-x-x--|
A|--0h2----7--5---7---0h2--5--5--4--|--0h2----7--5---7---0h2--x-x-x-x-x--|
E|----------------5--------3--3--2--|----------------5--------x-x-x-x-x--|

e|-----------|----------------------------------|
B|-----------|----------------------------------|
G|-----------|---------9--7---6-----------------|
D|--5--5--4--|--4-4----9--7---7-----4--5--5--4--|
A|--5--5--4--|--0h2----7--5---7---0h2--5--5--4--|
E|--3--3--2--|----------------5--------3--3--2--|

e|--------------------|--------------------------------------------------|
B|--------------------|--------------------------------------------------|
G|---------9--7---6---|--------------------------------------------------|
D|--4-4----9--7---7---|--5--5--5--5--5--5--5--5--4--4--4--4--4--4--4--4--|
A|--0h2----7--5---7---|--5--5--5--5--5--5--5--5--4--4--4--4--4--4--4--4--|
E|----------------5---|--3--3--3--3--3--3--3--3--2--2--2--2--2--2--2--2--|

e|--------------------------|--------------------------|
B|--------------------------|--------------------------|
G|--2--2--------------------|--2--2--------------------|
D|--2--2--------2--------2--|--2--2--------2--------2--|
A|--0--0--2-----2-----------|--0--0--2-----2-----------|
E|-----------3--0--3--4-----|-----------3--0--3--4-----|

e|--------------------------|------------------------------------------------|
B|--------------------------|------------------------------------------------|
G|--2--2--------------------|------------------------------------------------|
D|--2--2--------2--------2--|-5--5--5--5--5--5--5--5--4--4--4--4--4--4--4--4-|
A|--0--0--2-----2-----------|-5--5--5--5--5--5--5--5--4--4--4--4--4--4--4--4-|
E|-----------3--0--3--4-----|-3--3--3--3--3--3--3--3--2--2--2--2--2--2--2--2-|

e|---------------------------------------------------|
B|---------------------------------------------------|
G|-------0-----0----------------------2--------2--2--|
D|--0h2--0--2--0--2p0--0--2--0--2--2--2--2--0--2--2--|
A|--0h2-----2-----2p0--0--2--0--2--2-----2--0--0--0--|
E|---------------------------------------------------|

3rd Verse
e|---------------------------------------|
B|-----------------------------8--8--7---|
G|-----------5---5--7----------7--7--7---|
D|-----------5---5--7----------7--7--7---|
A|--5--7----------------5--7-------------|
E|--5--7----------------5--7-------------|

e|---------------------------------------|
B|-----------------------------8--8--7---|
G|-----------5---5--7----------7--7--7---|
D|-----------5---5--7----------7--7--7---|
A|--5--7----------------5--7-------------|
E|--5--7----------------5--7-------------|

e|----------------------------------------|
B|------------------------------8--8--7---|
G|--9--7\---------------9--7----7--7--7---|
D|--9--7\----5--5---7---9--7----7--7--7---|
A|--7--5\----5--5---7---7--5--------------|
E|----------------------------------------|

e|---------------------------------------|
B|-----------------------------8--8--7---|
G|--9--7---------------9--7----7--7--7---|
D|--9--7----5--5---7---9--7----7--7--7---|
A|--7--5----5--5---7---7--5--------------|
E|---------------------------------------|

e|---------------------------------------|
B|-----------------------------8--8--7---|
G|--9--7---------------9--7----7--7--7---|
D|--9--7----5--5---7---9--7----7--7--7---|
A|--7--5----5--5---7---7--5--------------|
E|---------------------------------------| 

e|---------------------------------------|
B|-----------------------------8--8--7---|
G|--9--7---------------9--7----7--7--7---|
D|--9--7----5--5---7---9--7----7--7--7---|
A|--7--5----5--5---7---7--5--------------|
E|---------------------------------------|

2nd  Pre-Chorus
e|---------------------------------------------------|
B|---------------------------------------------------|
G|--------------7-----------------------7--7--9~~~---|
D|--9--7--9--7--7--7--7--9--9--7--9--7--7--7--9~~~---|
A|--9--7--9--7-----7--7--9--9--7--9--7---------------|
E|---------------------------------------------------|

e|-------------------------------------------------------|
B|-------------------------------------------------------|
G|--------------7------------------------2--2------------|
D|--9--7--9--7--7--7--7--9--9--7--9--7\--2--2------------|
A|--9--7--9--7-----7--7--9--9--7--9--7\--0--0--0--2------|
E|---------------------------------------------------3---|

2nd Chorus
e|---------------------------|---------------------------|
B|---------------------------|---------------------------|
G|---------------2--2--2-----|---------------2--2--2-----|
D|--2--------2---2--2--2-----|--2--------2---2--2--2-----|
A|--2------------0--0--0-----|--2------------0--0--0-----|
E|--0--3h4----------------3--|--0--3h4----------------3--|

e|---------------------------|-----------------------------------------------|
B|---------------------------|-----------------------------------------------|
G|---------------2--2--2-----|-----------------------------------------------|
D|--2--------2---2--2--2-----|-5--5--5--5--5--5--5--5--4--4--4--4--4--4--4--4|
A|--2------------0--0--0-----|-5--5--5--5--5--5--5--5--4--4--4--4--4--4--4--4|
E|--0--3h4----------------3--|-3--3--3--3--3--3--3--3--2--2--2--2--2--2--2--2|

e|---------------------------------------------------|
B|---------------------------------------------------|
G|-------0-----0----------------------2--------2--2--|
D|--0h2--0--2--0--2p0--0--2--0--2--2--2--2--0--2--2--|
A|--0h2-----2-----2p0--0--2--0--2--2-----2--0--0--0--|
E|---------------------------------------------------|

e|-------------------------------------------------|
B|-------------------------------------------------|
G|-------0-----0----------------------2--------2---|
D|--0h2--0--2--0--2p0--0--2--0--2--2--2--2--0--2---|
A|--0h2-----2-----2p0--0--2--0--2--2-----2--0--0---|
E|-------------------------------------------------|

Intro Reprise
e|---------------------|---------------------|----------------------3---|
B|---------------------|---------------------|----------------------3---|
G|---------------------|---------------------|----------------------0---|
D|---------------------|---------------------|-----------0--2p0-----0---|
A|---------------------|---------------------|--0--1--2----------2--2---|
E|---------------------|---------------------|----------------------3---|

e|-----------------------|
B|--8---8---8---8---8/---|
G|--7---7---7---7---7/---|
D|--5---5---5---5---5/---|
A|-----------------------|
E|-----------------------|

************************************

| /   slide up
| \   slide down
| h   hammer-on
| p   pull-off
| ~   vibrato
| +   harmonic
| x   Mute note
| b   Bend
| pb  Pre-bend
| br  Bend release
| pbr Pre-bend release
| brb Bend release bend
| bd  Bend Down

************************************
Intro
D  E D G D  N.C.  G
A11 E G E G E A11 E A11 E A G E A
A11 E G E G E A11 E A11 E A G E A
A11 E G E G E A11 E A11 E A G E A

Oh hit it
A11 E G E G E A11 E A11 E A G E A
A11 E G E G E A11 E A11 E A G E A

1st Verse
     A11 E           G       A
Well every time I'm down and out

       A11   E               G D   
And I don't know what to do

    A11    E          G       A  
I drop my load and I hit the road

    A11  E  
And play me a job or two

G     D
Yes I do

A11 E G E G E A11 E A11 E A G E A

2nd Verse
A11   E                 G    A
What they're sayin' keeps hitting me


A11           E                 G   D
Right square smack in the face

A11       E                    G     D
They say that my songs are no good, baby

A11        E                        G  D
Why don't you join the human race

      E   D                 G     A
You know I've had just all I can take

       E     D               G   D
And I don't know what to do

E     D                 G     A
Guess I'll have to hit the stage

E    D                 G    D
Play me a song or two

Pre-Chorus
A    B    A    B   A  D A   B
You know I've had all I can take

B    A  B    A   D    E
Sitting here at home

A B     A    B    A  D   A   B
I guess I'll have to hit the road

A   B    A B    A        B G
You know I love to roam

      E         A             G E
Road fever, oh don't you know I got

Road fever

G   F#

A11 E G E G E A11 E A11 E A G E A

Solo
Em/F#  B  E  D
Em/F#  G  E  F#
Em/F#  B  E  D
Em/F#  G  E  F#
Em/F#  B  E  D
G  F#
A  B  G  E  A  G  E  A  G  E
G  F#
A11 E G E G E A11 E A11 E A G E A

3rd Verse
A11      E               G         A
You know this life has taken it's toll

       A11   E                 G   D
And I don't know where to go

       A11   E            G       A    
And I love this life of rock and roll

             A11 E                 G   D
But there's one thing that I know

     E D            G       A
And every time I'm down and out

       E     D               G   D             
And I don't know what to do
    E      D          G       A
I drop my load and I hit the road

      E   D                G    D
And play me a song or two


Pre-Chorus
A    B    A    B   A  D A   B
You know I've had all I can take

B    A  B    A   D    E
Sitting here at home


A B     A    B    A  D   A   B
I guess I'll have to hit the road

A   B    A B    A        B G
You know I love to roam

      E         A             G E
Road fever, oh don't you know I got

Road fever

G   F#
Outro Solo
A11 E G E G E A11 E A11 E A G E A
A11 E G E G E A11 E A11 E A G E A

Outro
D   E   G   D N.C. G





Comments


Popular Blackfoot tabs & chords
Train Train Bass Tabs
Highway Song Chords
Dancin Man Tabs
Dream On Tabs
Every Man Should Know (Queenie) Tabs
Flyin High Tabs
Highway Song 2 Tabs
Searchin Tabs
Train Train 2 Tabs
Train, Train Tabs


Song lyrics



↑ Back to top | Tablatures and chords are parodies/interpretations of the original songs. You may use it for private study, scholarship, research or language learning purposes only
© 2014 AZChords.com Contact us | Privacy policy | DMCA | Add/correct tabs | Request tabs | Top 50 tabs