>
 >
Reckless Abandoner

Reckless Abandoner Guitar Tabs

Blackfoot - Reckless Abandoner chords, tabs, tablatures, lyrics

Guitar lessons | Add/correct | Request | Top 50 tabs Artists:  A B C D E F G H I J K L M N O P Q R S T U V W X Y Z 0-9

Reckless Abandoner Guitar Tabs – Blackfoot

CD, Sheet music, Poster

Do you like Reckless Abandoner? Share with your friends now
Tabs
2.                    Tomcattin-1980
3.                    Words and Music Rick Medlocke and Jakson Spires
Tuning: EADGBE

Intro: Guitar II(Overdriven) play twice
e|--------------------|------0----------|---------------------|--------------|
B|--------------------|---------3-------|---------------------|--------------|
G|--2---2------2------|------------2----|--2---2--------------|--------------|
D|--2---2------2------|--0-----------0--|--3---3-----------2--|--------2-----|
A|--0---0-------------|-----------------|--3---3--------0--2--|--------------|
E|----------3------2--|-----------------|--1---1--1--3-----0--|--0-2-3----3--|

1st Verse: Guitar I & II (Overdriven)Play all the verse twice
e|-----------------------|-----------0--------------|
B|-----------------------|-------------3------------|
G|--2---2---------2------|-----2---------2----0-----|
D|--2---2---------2------|--0-----0-----------0-----|
A|--0---0----------------|-----------------------0--|
E|---------0-0-3------2--|-----------------------0--|

Guitar I
e|-------------------------------|--------------------|
B|-------------------------------|--------------------|
G|--2---2------------------------|--------------------|
D|--3---3---------------------2--|--------------2-----|
A|--3---3---3---3---3-----0---2--|--------------------|
E|--1---1---1---1---1--3------0--|--0--0--2--3-----3--|

Guitar II
e|----------------------------|-----------------|
B|----------------------------|-----------------|
G|--2---2---------------------|-----------------|
D|--3---3------------------2--|-----------2-----|
A|--3---3--------------3---2--|-----------------|
E|--1---1---1---3/5--------0--|--0--2--3-----3--|

1st Pre Chorus: Guitar I (Overdriven)
e|--2---3---2---3---2----------|------------|--0---0----------|------------|
B|--3---3---3---3---3-------0--|------0h1---|--0---0-------0--|------0h1---|
G|--2---2---2---2---2---0---2--|--2---------|--1---1---0---2--|--2---------|
D|--0---0---0---0---0---0---2--|------------|--2---2---0---2--|------------|
A|-----------------------------|------------|--2---2-------0--|------------|
E|-----------------------------|------------|--0---0----------|------------|

1st Pre Chorus: Guitar II (Overdriven)
e|--2---3---2---3---2----------|----------------|--0---0---------------|
B|--3---3---3---3---3----------|----------------|--0---0---------------|
G|--2---2---2---2---2---0---2--|--2-------------|--1---1--------0---2--|
D|--0---0---0---0---0---0---2--|--2-------------|--2---2---0h2------2--|
A|-----------------------------|-----0--0--2--3-|--2---2------------0--|
E|-----------------------------|----------------|--0---0---------------|

Guitar I
e|--2---3---2---3---2----------|------------2---2--|
B|--3---3---3---3---3-------0--|------0h1---3---3--|
G|--2---2---2---2---2---0---2--|--2---------2---2--|
D|--0---0---0---0---0---0---2--|------------0---0--|
A|-----------------------------|-------------------|
E|-----------------------------|-------------------|

Guitar II
e|--2---3---2---3---2----------|------------------2--|
B|--3---3---3---3---3----------|------------------3--|
G|--2---2---2---2---2---0---2--|--2---------------2--|
D|--0---0---0---0---0---0---2--|--2---------------0--|
A|-----------------------------|-----0--0--2--3------|
E|-----------------------------|---------------------|

Guitar I
e|-----------------------------------------4---4--|
B|-----------------------------------------5---5--|
G|-----------------------------------------4---4--|
D|-------------------------------7--5-------------|
A|--5h7---7--5-------------------------5----------|
E|---------------7p5\3---5p3p0--------------------|

Guitar II
e|------------------------------------------------|
B|------------------------------------------------|
G|-----------------------------------------9---9--|
D|-------------------------------7--5------9---9--|
A|--5h7---7--5-------------------------5---7---7--|
E|---------------7p5\3---5p3p0--------------------|

Chorus: Guitar I (Overdriven)
e|--2---3---2---3---2--|--3---3---3--|---------------------|
B|--3---3---3---3---3--|--3---3---3--|---------------------|
G|--2---2---2---2---2--|--0---0---0--|--2---2-----------2--|
D|--0---0---0---0---0--|--2---2---2--|--2---2-----------2--|
A|---------------------|--3---3---3--|--0---0--------------|
E|---------------------|-------------|---------3--3--3-----|

Chorus: Guitar II (Overdriven)
e|--2---3---2---3---2--|-------------------------|-------------------------|
B|--3---3---3---3---3--|--5---6---5---6---5---5--|-------------------------|
G|--2---2---2---2---2--|--5---5---5---5---5---5--|--2---2---0---0---0---2--|
D|--0---0---0---0---0--|--5---5---5---5---5---5--|--2---2---0---0---0---2--|
A|---------------------|--3---3---3---3---3---3--|--0---0------------------|
E|---------------------|-------------------------|-------------------------|

Guitar I
e|--------------------------1--|--3-----3-----|
B|--------------------------1--|--3-----3-----|
G|--------------2---2---2---2--|--0-----4-----|
D|--5---4-------2---2---3---3--|--0-----5-----|
A|--3---2---5---0---0---3------|--2-----------|
E|----------3-----------1------|--3-----------|

Guitar II
e|------------------------------------------------|--3------3------|
B|------------------------------------------------|--3------3------|
G|--------------2---2---2---2---------------------|--0------0------|
D|--5---4-------2---2---3---3---------------------|--0------0------|
A|--3---2---5---0---0---3---3--------3--5p3-------|--2------2------|
E|----------3-----------1---1---3/5-----------5---|--3------3------|

Guitar I
e|-------------------------|-----------------|--2---3---2---3---2--|
B|-------------------------|-----------------|--3---3---3---3---3--|
G|--2-----2-----2---5---0--|--7---5---0---2--|--2---2---2---2---2--|
D|--2-----2-----2---5---0--|--7---5---0---2--|--0---0---0---0---0--|
A|-------------------------|-----------------|---------------------|
E|-----3-----3-------------|-----------------|---------------------|

Guitar II
e|-----------------------------|-----------------|--2---3---2---3---2--|
B|-----------------------------|-----------------|--3---3---3---3---3--|
G|--2---0---2---0---2---5---0--|--7---5---0---2--|--2---2---2---2---2--|
D|--2---0---2---0---2---5---0--|--7---5---0---2--|--0---0---0---0---0--|
A|-----------------------------|-----------------|---------------------|
E|-----------------------------|-----------------|---------------------|

Guitar I
e|--3---3---3--|---------------------|---------------|
B|--3---3---3--|---------------------|---------------|
G|--0---0---0--|--2---2-----------2--|------------2--|
D|--2---2---2--|--2---2-----------2--|------------2--|
A|--3---3---3--|--0---0--------------|--3--2------0--|
E|-------------|---------3--3--3-----|--------3------|

Guitar II
e|-------------------------|-------------------------|----------------|
B|--5---6---5---6---5---5--|-------------------------|----------------|
G|--5---5---5---5---5---5--|--2---2---0---0---0---2--|-------------2--|
D|--5---5---5---5---5---5--|--2---2---0---0---0---2--|-------------2--|
A|--3---3---3---3---3---3--|--0---0------------------|--3--2-------0--|
E|-------------------------|-------------------------|---------3------|
 
1st Bridge: Guitar I (Clean)
e|--1-------3----|
B|--1-------3----|
G|--2-------0----|
D|--3-------0----|
A|--3-------2----|
E|--1-------3----|

1st Bridge: Guitar II (Clean)
e|--1--1---------1---------3---3---------3---------|
B|--1-----1---------1------3------3----------3-----|
G|--2--------2---------2---0---------0----------0--|
D|--3----------------------0-----------------------|
A|--3----------------------2-----------------------|
E|--1----------------------3-----------------------|

2nd Solo: Guitar II (Overdriven)
e|---------------------------|------0------------------|
B|---------------------------|---------3---------------|
G|--2---2-------------2------|------------2-----0------|
D|--2---2-------------2------|--0-----------0---0------|
A|--0---0--------------------|----------------------0--|
E|-----------0--0--3------2--|----------------------0--|

Guitar II
e|--------------------------------|------------------|
B|--------------------------------|------------------|
G|--2---2-------------------------|------------------|
D|--3---3----------------------2--|------------2-----|
A|--3---3---3---3---3------0---2--|------------------|
E|--1---1---1---1---1---3------0--|--0--2--3------3--|

2nd  Verse: Guitar I & II (Overdriven)Play all the verse twice
e|-----------------------|-----------0--------------|
B|-----------------------|-------------3------------|
G|--2---2---------2------|-----2---------2----0-----|
D|--2---2---------2------|--0-----0-----------0-----|
A|--0---0----------------|-----------------------0--|
E|---------0-0-3------2--|-----------------------0--|

Guitar I
e|-------------------------------|--------------------|
B|-------------------------------|--------------------|
G|--2---2------------------------|--------------------|
D|--3---3---------------------2--|--------------2-----|
A|--3---3---3---3---3-----0---2--|--------------------|
E|--1---1---1---1---1--3------0--|--0--0--2--3-----3--|

Guitar II
e|----------------------------|-----------------|
B|----------------------------|-----------------|
G|--2---2---------------------|-----------------|
D|--3---3------------------2--|-----------2-----|
A|--3---3--------------3---2--|-----------------|
E|--1---1---1---3/5--------0--|--0--2--3-----3--|

2nd  Pre Chorus: Guitar I (Overdriven)
e|--2---3---2---3---2----------|------------|--0---0----------|------------|
B|--3---3---3---3---3-------0--|------0h1---|--0---0-------0--|------0h1---|
G|--2---2---2---2---2---0---2--|--2---------|--1---1---0---2--|--2---------|
D|--0---0---0---0---0---0---2--|------------|--2---2---0---2--|------------|
A|-----------------------------|------------|--2---2-------0--|------------|
E|-----------------------------|------------|--0---0----------|------------|

2nd  Pre Chorus: Guitar II (Overdriven)
e|--2---3---2---3---2----------|----------------|--0---0---------------|
B|--3---3---3---3---3----------|----------------|--0---0---------------|
G|--2---2---2---2---2---0---2--|--2-------------|--1---1--------0---2--|
D|--0---0---0---0---0---0---2--|--2-------------|--2---2---0h2------2--|
A|-----------------------------|-----0--0--2--3-|--2---2------------0--|
E|-----------------------------|----------------|--0---0---------------|

Guitar I
e|--2---3---2---3---2----------|-------------2-----|--4\---4\---7---4--|
B|--3---3---3---3---3-------0--|------0h1----3-----|--5\---5\---8---5--|
G|--2---2---2---2---2---0---2--|--2----------2-----|--4\---4\---7---4--|
D|--0---0---0---0---0---0---2--|-------------0-----|-------------------|
A|-----------------------------|-------------------|-------------------|
E|-----------------------------|-------------------|-------------------|

Guitar II
e|--2---3---2---3---2----------|------------------2--|--------------------|
B|--3---3---3---3---3----------|------------------3--|--9\---9\---12---9--|
G|--2---2---2---2---2---0---2--|--2---------------2--|--9\---9\---12---9--|
D|--0---0---0---0---0---0---2--|--2---------------0--|--9\---9\---12---9--|
A|-----------------------------|-----0--0--2--3------|--7\---7\---10---7--|
E|-----------------------------|---------------------|--------------------|

2nd Chorus: Guitar I (Overdriven)
e|--2---3---2---3---2--|--3---3---3--|---------------------|
B|--3---3---3---3---3--|--3---3---3--|---------------------|
G|--2---2---2---2---2--|--0---0---0--|--2---2-----------2--|
D|--0---0---0---0---0--|--2---2---2--|--2---2-----------2--|
A|---------------------|--3---3---3--|--0---0--------------|
E|---------------------|-------------|---------3--3--3-----|

2nd Chorus: Guitar II (Overdriven)
e|--2---3---2---3---2--|-------------------------|-------------------------|
B|--3---3---3---3---3--|--5---6---5---6---5---5--|-------------------------|
G|--2---2---2---2---2--|--5---5---5---5---5---5--|--2---2---0---0---0---2--|
D|--0---0---0---0---0--|--5---5---5---5---5---5--|--2---2---0---0---0---2--|
A|---------------------|--3---3---3---3---3---3--|--0---0------------------|
E|---------------------|-------------------------|-------------------------|

Guitar I
e|--------------------------1--|--3-----3-----|
B|--------------------------1--|--3-----3-----|
G|--------------2---2---2---2--|--0-----4-----|
D|--5---4-------2---2---3---3--|--0-----5-----|
A|--3---2---5---0---0---3------|--2-----------|
E|----------3-----------1------|--3-----------|

Guitar II
e|------------------------------------------------|--3------3------|
B|------------------------------------------------|--3------3------|
G|--------------2---2---2---2---------------------|--0------0------|
D|--5---4-------2---2---3---3---------------------|--0------0------|
A|--3---2---5---0---0---3---3--------3--5p3-------|--2------2------|
E|----------3-----------1---1---3/5-----------5---|--3------3------|

Guitar I
e|-------------------------|-----------------|--2---3---2---3---2--|
B|-------------------------|-----------------|--3---3---3---3---3--|
G|--2-----2-----2---5---0--|--7---5---0---2--|--2---2---2---2---2--|
D|--2-----2-----2---5---0--|--7---5---0---2--|--0---0---0---0---0--|
A|-------------------------|-----------------|---------------------|
E|-----3-----3-------------|-----------------|---------------------|

Guitar II
e|-----------------------------|-----------------|--2---3---2---3---2--|
B|-----------------------------|-----------------|--3---3---3---3---3--|
G|--2---0---2---0---2---5---0--|--7---5---0---2--|--2---2---2---2---2--|
D|--2---0---2---0---2---5---0--|--7---5---0---2--|--0---0---0---0---0--|
A|-----------------------------|-----------------|---------------------|
E|-----------------------------|-----------------|---------------------|

Guitar I
e|--3---3---3--|---------------------|---------------|
B|--3---3---3--|---------------------|---------------|
G|--0---0---0--|--2---2-----------2--|------------2--|
D|--2---2---2--|--2---2-----------2--|------------2--|
A|--3---3---3--|--0---0--------------|--3--2------0--|
E|-------------|---------3--3--3-----|--------3------|

Guitar II
e|-------------------------|-------------------------|----------------|
B|--5---6---5---6---5---5--|-------------------------|----------------|
G|--5---5---5---5---5---5--|--2---2---0---0---0---2--|-------------2--|
D|--5---5---5---5---5---5--|--2---2---0---0---0---2--|-------------2--|
A|--3---3---3---3---3---3--|--0---0------------------|--3--2-------0--|
E|-------------------------|-------------------------|---------3------|
 
2nd Bridge: Guitar I (Clean)
e|--1-------3----|-------------|--1------0--|
B|--1-------3----|--1---3---1--|--1------0--|
G|--2-------0----|--2---4---2--|--2------1--|
D|--3-------0----|--2---4---2--|--3------2--|
A|--3-------2----|--0---0---0--|--3------2--|
E|--1-------3----|-------------|--1------0--|

2nd Interlude: Guitar II (Clean)
e|--1--1---------1---------3---3---------3---------|-------------------------|
B|--1-----1---------1------3------3----------3-----|--1--1---------3---3-----|
G|--2--------2---------2---0---------0----------0--|--2-----2------4-----4---|
D|--3----------------------0-----------------------|--2--------2---4-------4-|
A|--3----------------------2-----------------------|--0------------0---------|
E|--1----------------------3-----------------------|-------------------------|
Guitar II
e|-----0----------3--0--------|--1--------1--------------0---------0---------|
B|--1-----1-------------1-----|--1-----1-----1-----------0------------0------|
G|--2--------2-------------2--|--2--2--------------------1------1--------1---|
D|--2-------------------------|--3-------------------0---2-----------------2-|
A|--0-------------------------|--3--------------0h2------2---2---------------|
E|----------------------------|--1-----------------------0-------------------|

Pre Solo: Guitar I & II (Overdriven)
e|-----------------------|-----------0--------------|
B|-----------------------|-------------3------------|
G|--2---2---------2------|-----2---------2----0-----|
D|--2---2---------2------|--0-----0--------0--0-----|
A|--0---0----------------|-----------------------0--|
E|---------0-0-3------2--|-----------------------0--|

Guitar I
e|-------------------------------|--------------------|
B|-------------------------------|--------------------|
G|--2---2------------------------|--------------------|
D|--3---3---------------------2--|--------------2-----|
A|--3---3---3---3---3-----0---2--|--------------------|
E|--1---1---1---1---1--3------0--|--0--0--2--3-----3--|

Guitar II
e|----------------------------|-----------------|
B|----------------------------|-----------------|
G|--2---2---------------------|-----------------|
D|--3---3------------------2--|-----------2-----|
A|--3---3--------------3---2--|-----------------|
E|--1---1---1---3/5--------0--|--0--2--3-----3--|

Solo: Guitar II (Overdriven)
e|--2---3---2---3---2--|-------------------------|-------------------------|
B|--3---3---3---3---3--|--5---6---5---6---5---5--|-------------------------|
G|--2---2---2---2---2--|--5---5---5---5---5---5--|--2---2---------------2--|
D|--0---0---0---0---0--|--5---5---5---5---5---5--|--2---2---------------2--|
A|---------------------|--3---3---3---3---3---3--|--0---0------------------|
E|---------------------|-------------------------|----------3---3---3------|

Guitar II
e|------------------------------------------------|--3------3------|
B|------------------------------------------------|--3------3------|
G|--------------2---2---2---2---------------------|--0------0------|
D|--5---4-------2---2---3---3---------------------|--0------0------|
A|--3---2---5---0---0---3---3--------3--5p3-------|--2------2------|
E|----------3-----------1---1---3/5-----------5---|--3------3------|

Guitar II
e|-------------------------|-----------------------------|-------------------|
B|-------------------------|-----------------------------|-------------------|
G|--2----------------------|--2-------------------2------|-------------------|
D|--2---5---4---4---4---5--|--2---3---3---3---5---2---2--|------------2------|
A|--0---5---4---4---4---5--|--0---3---3---3---5---0---2--|-------------------|
E|------3---2---2---2---3--|------1---1---1---3-------0--|--0--2--3--------3-|

3rd Verse Guitar I (Overdriven)
e|-----------------------|-----------0P.H.------------------|
B|-----------------------|--------------3P.H.---------------|
G|--2---2---------2------|-----2------------2P.H.----0------|
D|--2---2---------2------|--0-----0------------------0------|
A|--0---0----------------|-------------------------------0--|
E|---------0-0-3------2--|-------------------------------0--|

 3rd Verse: Guitar II (Overdriven)
e|-----------------------|-----------0P.H.------------------|
B|-----------------------|--------------3P.H.---------------|
G|--2---2---------2------|-----2-----------2P.H.----0-------|
D|--2---2---------2------|--0-----0-----------------0-------|
A|--0---0----------------|-------------------------------0--|
E|---------0-0-3------2--|-------------------------------0--|

Guitar I
e|-------------------------------|--------------------|
B|-------------------------------|--------------------|
G|--2---2------------------------|--------------------|
D|--3---3---------------------2--|--------------2-----|
A|--3---3---3---3---3-----0---2--|--------------------|
E|--1---1---1---1---1--3------0--|--0--0--2--3-----3--|

Guitar II
e|----------------------------|-----------------|
B|----------------------------|-----------------|
G|--2---2---------------------|-----------------|
D|--3---3------------------2--|-----------2-----|
A|--3---3--------------3---2--|-----------------|
E|--1---1---1---3/5--------0--|--0--2--3-----3--|

Guitar I
e|-----------------------|-----------0P.H.------------------|
B|-----------------------|--------------3P.H.---------------|
G|--2---2---------2------|-----2------------2P.H.----0------|
D|--2---2---------2------|--0-----0------------------0------|
A|--0---0----------------|-------------------------------0--|
E|---------0-0-3------2--|-------------------------------0--|

Guitar II
e|-----------------------|-----------0P.H.------------------|
B|-----------------------|--------------3P.H.---------------|
G|--2---2---------2------|-----2-----------2P.H.----0-------|
D|--2---2---------2------|--0-----0-----------------0-------|
A|--0---0----------------|-------------------------------0--|
E|---------0-0-3------2--|-------------------------------0--|

Guitar I
e|-------------------------------|-------------------4--|
B|-------------------------------|-------------------5--|
G|--2---2------------------------|-------------------4--|
D|--3---3---------------------2--|--------------2-------|
A|--3---3---3---3---3-----0---2--|----------------------|
E|--1---1---1---1---1--3------0--|--0--0--2--3----------|

Guitar II
e|----------------------------|--------------------|
B|----------------------------|--------------------|
G|--2---2---------------------|-----------------9--|
D|--3---3------------------2--|-----------2-----9--|
A|--3---3--------------3---2--|-----------------7--|
E|--1---1---1---3/5--------0--|--0--2--3-----------|

Guitar I
e|-----------------------|-----------0--------------|
B|-----------------------|-------------3------------|
G|--2---2---------2------|-----2---------2----0-----|
D|--2---2---------2------|--0-----0-----------0-----|
A|--0---0----------------|-----------------------0--|
E|---------0-0-3------2--|-----------------------0--|

Guitar II
e|-----------------------|-----------0--------------|
B|-----------------------|-------------3------------|
G|--2---2---------2------|-----2---------2----0-----|
D|--2---2---------2------|--0-----0-----------0-----|
A|--0---0----------------|-----------------------0--|
E|---------0-0-3------2--|-----------------------0--|

Guitar I
e|-------------------------------|--------------------|
B|-------------------------------|--------------------|
G|--2---2------------------------|--------------------|
D|--3---3---------------------2--|--------------2-----|
A|--3---3---3---3---3-----0---2--|--------------------|
E|--1---1---1---1---1--3------0--|--0--0--2--3-----3--|

Guitar II
e|----------------------------|-----------------|
B|----------------------------|-----------------|
G|--2---2---------------------|-----------------|
D|--3---3------------------2--|-----------2-----|
A|--3---3--------------3---2--|-----------------|
E|--1---1---1---3/5--------0--|--0--2--3-----3--|

Guitar I
e|-----------------------|-----------0--------------|
B|-----------------------|-------------3------------|
G|--2---2---------2------|-----2---------2----0-----|
D|--2---2---------2------|--0-----0-----------0-----|
A|--0---0----------------|-----------------------0--|
E|---------0-0-3------2--|-----------------------0--|

Guitar II
e|-----------------------|-----------0--------------|
B|-----------------------|-------------3------------|
G|--2---2---------2------|-----2---------2----0-----|
D|--2---2---------2------|--0-----0-----------0-----|
A|--0---0----------------|-----------------------0--|
E|---------0-0-3------2--|-----------------------0--|

Guitar I
e|-------------------------------|--------------------|
B|-------------------------------|--------------------|
G|--2---2------------------------|--------------------|
D|--3---3---------------------2--|--------------2-----|
A|--3---3---3---3---3-----0---2--|--------------------|
E|--1---1---1---1---1--3------0--|--0--0--2--3-----3--|

Guitar II
e|----------------------------|-----------------|
B|----------------------------|-----------------|
G|--2---2---------------------|-----------------|
D|--3---3------------------2--|-----------2-----|
A|--3---3--------------3---2--|-----------------|
E|--1---1---1---3/5--------0--|--0--2--3-----3--|

3nd  Pre Chorus: Guitar I (Overdriven)
e|--2---3---2---3---2----------|------------|--0---0----------|------------|
B|--3---3---3---3---3-------0--|------0h1---|--0---0-------0--|------0h1---|
G|--2---2---2---2---2---0---2--|--2---------|--1---1---0---2--|--2---------|
D|--0---0---0---0---0---0---2--|------------|--2---2---0---2--|------------|
A|-----------------------------|------------|--2---2-------0--|------------|
E|-----------------------------|------------|--0---0----------|------------|

3nd  Pre Chorus: Guitar II (Overdriven)
e|--2---3---2---3---2----------|----------------|--0---0---------------|
B|--3---3---3---3---3----------|----------------|--0---0---------------|
G|--2---2---2---2---2---0---2--|--2-------------|--1---1--------0---2--|
D|--0---0---0---0---0---0---2--|--2-------------|--2---2---0h2------2--|
A|-----------------------------|-----0--0--2--3-|--2---2------------0--|
E|-----------------------------|----------------|--0---0---------------|

Guitar I
e|--2---3---2---3---2----------|-------------2-----|--4\---4\---7---4--|
B|--3---3---3---3---3-------0--|------0h1----3-----|--5\---5\---8---5--|
G|--2---2---2---2---2---0---2--|--2----------2-----|--4\---4\---7---4--|
D|--0---0---0---0---0---0---2--|-------------0-----|-------------------|
A|-----------------------------|-------------------|-------------------|
E|-----------------------------|-------------------|-------------------|

Guitar II
e|--2---3---2---3---2----------|------------------2--|--------------------|
B|--3---3---3---3---3----------|------------------3--|--9\---9\---12---9--|
G|--2---2---2---2---2---0---2--|--2---------------2--|--9\---9\---12---9--|
D|--0---0---0---0---0---0---2--|--2---------------0--|--9\---9\---12---9--|
A|-----------------------------|-----0--0--2--3------|--7\---7\---10---7--|
E|-----------------------------|---------------------|--------------------|

3nd Chorus: Guitar I (Overdriven)
e|--2---3---2---3---2--|--3---3---3--|---------------------|
B|--3---3---3---3---3--|--3---3---3--|---------------------|
G|--2---2---2---2---2--|--0---0---0--|--2---2-----------2--|
D|--0---0---0---0---0--|--2---2---2--|--2---2-----------2--|
A|---------------------|--3---3---3--|--0---0--------------|
E|---------------------|-------------|---------3--3--3-----|

3nd Chorus: Guitar II (Overdriven)
e|--2---3---2---3---2--|-------------------------|-------------------------|
B|--3---3---3---3---3--|--5---6---5---6---5---5--|-------------------------|
G|--2---2---2---2---2--|--5---5---5---5---5---5--|--2---2---0---0---0---2--|
D|--0---0---0---0---0--|--5---5---5---5---5---5--|--2---2---0---0---0---2--|
A|---------------------|--3---3---3---3---3---3--|--0---0------------------|
E|---------------------|-------------------------|-------------------------|

Guitar I
e|--------------------------1--|--3-----3-----|
B|--------------------------1--|--3-----3-----|
G|--------------2---2---2---2--|--0-----4-----|
D|--5---4-------2---2---3---3--|--0-----5-----|
A|--3---2---5---0---0---3------|--2-----------|
E|----------3-----------1------|--3-----------|

Guitar II
e|------------------------------------------------|--3------3------|
B|------------------------------------------------|--3------3------|
G|--------------2---2---2---2---------------------|--0------0------|
D|--5---4-------2---2---3---3---------------------|--0------0------|
A|--3---2---5---0---0---3---3--------3--5p3-------|--2------2------|
E|----------3-----------1---1---3/5-----------5---|--3------3------|

Guitar I
e|-------------------------|-----------------|--2---3---2---3---2--|
B|-------------------------|-----------------|--3---3---3---3---3--|
G|--2-----2-----2---5---0--|--7---5---0---2--|--2---2---2---2---2--|
D|--2-----2-----2---5---0--|--7---5---0---2--|--0---0---0---0---0--|
A|-------------------------|-----------------|---------------------|
E|-----3-----3-------------|-----------------|---------------------|


Guitar II
e|-----------------------------|-----------------|--2---3---2---3---2--|
B|-----------------------------|-----------------|--3---3---3---3---3--|
G|--2---0---2---0---2---5---0--|--7---5---0---2--|--2---2---2---2---2--|
D|--2---0---2---0---2---5---0--|--7---5---0---2--|--0---0---0---0---0--|
A|-----------------------------|-----------------|---------------------|
E|-----------------------------|-----------------|---------------------|

Guitar I
e|--3---3---3--|---------------------|---------------|
B|--3---3---3--|---------------------|---------------|
G|--0---0---0--|--2---2-----------2--|------------2--|
D|--2---2---2--|--2---2-----------2--|------------2--|
A|--3---3---3--|--0---0--------------|--3--2------0--|
E|-------------|---------3--3--3-----|--------3------|

Guitar II
e|-------------------------|-------------------------|----------------|
B|--5---6---5---6---5---5--|-------------------------|----------------|
G|--5---5---5---5---5---5--|--2---2---0---0---0---2--|-------------2--|
D|--5---5---5---5---5---5--|--2---2---0---0---0---2--|-------------2--|
A|--3---3---3---3---3---3--|--0---0------------------|--3--2-------0--|
E|-------------------------|-------------------------|---------3------|
 
3nd Bridge: Guitar I (Clean)
e|--1-------3----|-------------|--1------0--|-------------1-------3--|
B|--1-------3----|--1---3---1--|--1------0--|--1----1-----1-------3--|
G|--2-------0----|--2---4---2--|--2------1--|--2----2-----2-------0--|
D|--3-------0----|--2---4---2--|--3------2--|--2----2-----3-------0--|
A|--3-------2----|--0---0---0--|--3------2--|--0----0-----3-------2--|
E|--1-------3----|-------------|--1------0--|-------------1-------3--|

3nd Bridge: Guitar II (Clean)
e|--1--1---------1---------3---3---------3---------|-------------------------|
B|--1-----1---------1------3------3----------3-----|--1--1---------3---3-----|
G|--2-----------------2----0---------0----------0--|--2-----2------4-----4---|
D|--3---------3------------0-----------------------|--2--------2---4-------4-|
A|--3----------------------2-----------------------|--0------------0---------|
E|--1----------------------3-----------------------|-------------------------|

Guitar II
e|-----0----------3--0--------|--1--------1--------------0---------0---------|
B|--1-----1-------------1-----|--1-----1-----1-----------0------------0------|
G|--2--------2-------------2--|--2--2--------------------1------1--------1---|
D|--2-------------------------|--3-------------------0---2-----------------2-|
A|--0-------------------------|--3--------------0h2------2---2---------------|
E|----------------------------|--1-----------------------0-------------------|

Guitar II
e|-----------0----------|-3--0-------------|-1------1--------3------3--------|
B|-1------------1-------|-1--1--1----------|-1----1---1------3---------3-----|
G|-2-----2---------2----|-2--2-----2-----2-|-2--2-------2----0----0------0---|
D|-2--2---------------2-|-2--2--------2----|-3------------3--0--0-----------0|
A|-0--------------------|------------------|-3---------------2---------------|
E|----------------------|------------------|-1---------------3---------------|
Outro: Guitar I(overdriven)
e|-----------------------|-----------0--------------|
B|-----------------------|-------------3------------|
G|--2---2---------2------|-----2---------2----0-----|
D|--2---2---------2------|--0-----0-----------0-----|
A|--0---0----------------|-----------------------0--|
E|---------0-0-3------2--|-----------------------0--|

Outro:Guitar II (Overdriven)
e|--------------------|------0----------|---------------------|--------------|
B|--------------------|---------3-------|---------------------|--------------|
G|--2---2------2------|------------2----|--2---2--------------|--------------|
D|--2---2------2------|--0-----------0--|--3---3-----------2--|--------2-----|
A|--0---0-------------|-----------------|--3---3--------0--2--|-----------5--|
E|----------3------2--|-----------------|--1---1--1--3-----0--|--0-2-3----3--|

Guitar I
e|-------------------------------|--------------------|
B|-------------------------------|--------------------|
G|--2---2------------------------|--------------------|
D|--3---3---------------------2--|--------------2-----|
A|--3---3---3---3---3-----0---2--|--------------------|
E|--1---1---1---1---1--3------0--|--0--0--2--3-----3--|

Guitar I
e|-----------------------|-----------0--------------|
B|-----------------------|-------------3------------|
G|--2---2---------2------|-----2---------2----0-----|
D|--2---2---------2------|--0-----0-----------0-----|
A|--0---0----------------|-----------------------0--|
E|---------0-0-3------2--|-----------------------0--|

Guitar II
e|--------------------|------0----------|---------------------|--------------|
B|--------------------|---------3-------|---------------------|--------------|
G|--2---2------2------|------------2----|--2---2--------------|--------------|
D|--2---2------2------|--0-----------0--|--3---3-----------2--|--------2-----|
A|--0---0-------------|-----------------|--3---3--------0--2--|-----------5--|
E|----------3------2--|-----------------|--1---1--1--3-----0--|--0-2-3----3--|

Guitar I
e|-------------------------------|---------------|
B|-------------------------------|---------------|
G|--2---2------------------------|---------------|
D|--3---3---------------------2--|---------------|
A|--3---3---3---3---3-----0---2--|---------------|
E|--1---1---1---1---1--3------0--|--0--0--2--3---|

Outro Solo:Guitar II (Overdriven)Repeat till fade out
e|--------------------|------0----------|---------------------|--------------|
B|--------------------|---------3-------|---------------------|--------------|
G|--2---2------2------|------------2----|--2---2--------------|--------------|
D|--2---2------2------|--0-----------0--|--3---3-----------2--|--------2-----|
A|--0---0-------------|-----------------|--3---3--------0--2--|-----------5--|
E|----------3------2--|-----------------|--1---1--1--3-----0--|--0-2-3----3--|
Intro Solo: Guitar I
e|---------------------------------|--------------------|-----------------15-|
B|---------------------------------|------------------5-|---------13--15b----|
G|--2brP.H.--0--2--(0)--2br--0-----|--0--2/4\2-0-2/4----|--10/14-------------|
D|------------------------------2--|--------------------|--------------------|
A|---------------------------------|--------------------|--------------------|
E|---------------------------------|--------------------|--------------------|

e|--15---15---15--------15---------------|---------------------------------|
B|--15b--15b--15br--13--15br--13--15-----|--5--8b--8b--8pbr--5--8br--8--5--|
G|-----------------------------------14--|---------------------------------|
D|---------------------------------------|---------------------------------|
A|---------------------------------------|---------------------------------|
E|---------------------------------------|---------------------------------|

e|---------------------|
B|--8p5----------------|
G|-------7--7p5--------|
D|---------------7-----|
A|------------------7--|
E|---------------------|

Second Solo: Guitar I
e|----------------------|-----------------------------------|
B|-----8--10~~~--8--10--|-----------------------------------|
G|--9-------------------|--9\7--5--5--7p5-----5-------------|
D|----------------------|------------------7-----7p5-----5--|
A|----------------------|-----------------------------7-----|
E|----------------------|-----------------------------------|

e|-------------------------------|
B|-------------------------------|
G|-------------------------------|
D|-------------------------------|
A|--7\5--3--5br--3--5br--3--5/7--|
E|-------------------------------|

Main Solo: Guitar I
e|--------------------------------|-----------------------------------------|
B|-------13--13---13---13------5--|--8---8----8----8----8----8----8---------|
G|--12b------12b--12b--12b--7b----|--7b--7hb--7hb--7hb--7hb--7hb--7pbr--5---|
D|--------------------------------|-----------------------------------------|
A|--------------------------------|-----------------------------------------|
E|--------------------------------|-----------------------------------------|

e|----------------5----------------------------------------|
B|-------------------8p5-----5-----------------------------|
G|---------5--7b----------7-----7p5-----5--7br--5--7p5-----|
D|--7--7-----------------------------7------------------7--|
A|---------------------------------------------------------|
E|---------------------------------------------------------|

e|------------------------------|-----------------------------------------|
B|--10p8------13br--13--8p5-----|--8---8----8----8----8----8----8---------|
G|--------9-------------5-5--7--|--7b--7hb--7hb--7hb--7hb--7hb--7pbr--5---|
D|---------------------------7--|-----------------------------------------|
A|------------------------------|-----------------------------------------|
E|------------------------------|-----------------------------------------|

e|-----------------------|-----------------------------------|
B|-----------------------|-----------------------------------|
G|-----------------------|-----------------------------------|
D|--7--5--4--4--5--7--3--|--3--5--7--2--2--0--0--------------|
A|-----------------------|-----------------------3--3--2--2--|
E|-----------------------|-----------------------------------|

Outro Solo: Guitar I
e|----------------------|----------------------------------|
B|----------------------|----------------------------------|
G|--2br--0--2--0--2-----|--------------------------5--7bh--|
D|-------------------0--|-----0------------5--5h7----------|
A|----------------------|--3-----3p0--5h7------------------|
E|----------------------|----------------------------------|

e|-------------------------------|---------------------15--------------------|
B|--t--/t--t---------------------|---------13-14--15b------15b--15brb--15pbr-|
G|--12/14--10--7pbr--5-----------|--10/14------------------------------------|
D|----------------------7--5-----|-------------------------------------------|
A|----------------------------7--|-------------------------------------------|
E|-------------------------------|-------------------------------------------|

e|------------15-------------------------|--15-------------------------------|
B|--13---15b------15b--15brb--15pbr--13--|------15br--13h15p13--13--15--13---|
G|---------------------------------------|-----------------------------------|
D|---------------------------------------|-----------------------------------|
A|---------------------------------------|-----------------------------------|
E|---------------------------------------|-----------------------------------|

e|---------------15-------15-------15------------|---------------------------|
B|------13--15b------15b------15b------15b--15b--|---------17--20b--20b--20b-|
G|--14-------------------------------------------|--14/19--------------------|
D|-----------------------------------------------|---------------------------|
A|-----------------------------------------------|---------------------------|
E|-----------------------------------------------|---------------------------|

e|----------------------------------------|--20p17------20p17------20p17-----|
B|--20--17--20--20br--17--20b--20pbr--17--|---------17---------17---------17-|
G|----------------------------------------|----------------------------------|
D|----------------------------------------|----------------------------------|
A|----------------------------------------|----------------------------------|
E|----------------------------------------|----------------------------------|

Fade Out
e|--20p17------17--20b--20--20b--20b-------|
B|---------17------------------------------|
G|------------------------------------7/9--|
D|-----------------------------------------|
A|-----------------------------------------|
E|-----------------------------------------|


| /  slide up
| \  slide down
| h  hammer-on
| p  pull-off
| ~  vibrato
| +  harmonic
| x  Mute note
| t  tap note
| b  Bend
| br Bend release
| brb Bend release bend
| pbr Pre bend release
| hb Hold bend
| P.H. Pinch harmonic
Intro

A G A D/F# F G A E Repeat twice
Ah let me tell you all ab-out it 

1st Verse

               A      G  A
Oh I'm just a gambler 

D/F#      F     G     A   E
Oh baby a total midnight rambler yes I,ve seen it 

A    G A D/F#
all 

                F      G     A      E

1st Pre Chorus

         D                   A
but it's another spin of the bottle 

E                    A     B C D
lord to burn out the night 

                      A      D                         E
and at the end of the tunnel think I can see the light 

 1st Chorus

            D         C      A  G A C B G A
cause I'm a reckless abandoner

     F           G                 A   G A C G D C G A
and I live my life like a son of a gun 

     D         C      A  G A C B G A
oh a reckless abandoner 

1st Bridge

               F       G          A G A D/F# F G A E
oh oh oh and I live my life for you 

2nd Verse

                A      G A D/F#
Yes pick up the pieces  

           F           G    A    E
in my life I start it over again 

        A             G  A   D/F#      F               G  A    E 
and I'm glad I had my music for myself through this thick and thin 

2nd Pre Chorus

         D                   A      E              A     C B D
but it's another spin of the bottle oh to burn the night 

                      A       D                  E  
and at the end of the tunnel think I can see the light light

   G        E
oh yes the light 

2nd Chorus

        D         C      A  G A C B G A
cause I'm a reckless abandoner 

  F           G                 A   G A C G D C G A
and I live my life like a son of a gun 

   D         C      A  G A C B G A
oh a reckless abandoner 

2nd Bridge

                F       E         Am Bm C Bm
oh oh oh and I live my life for you 

      F       E        A   G A D/F# F
yes I live my life for you 

      G  A    E
for all of you oh yeah

Solo

A G A D/F# F G A E Play Twice

D C A G A C B G A F G A G F# G A F G A E 

3rd Verse

                A         G A D/F#
Well Tied up my boot lace 

         F        G   A      E
Oh oh oh I finish my last drink 

      A         G    A       D/F#        F                        E
and I wipe the sweat off my nasty brow I spit my blood up in the sink 

       A     G     A D/F# F
but it never gets so bad 

               G     A  E
that you cant stand the pain 

         A        G    A      D/F#                                  
and the only good reason that I can think of 

      F                  G    E
is to sing this song for you again 

3rd Pre Chorus

         D                   A      E
but it's another spin of the bottle 

               A     B C D
oh to burn the night 

                       A     D                   E
and at the end of the tunnel think I can see the light light 

   G       E
oh yes the light 

3rd Chorus

            D         C      A G A C B G A
cause I'm a reckless abandoner 

      F          G                   A G A G A C G D C G A
and I live my life like a son of a gun

      D       C       A G A C B G A
oh a reckless abandoner 

3rd Bridge

               F       G          Am Bm C Bm   F
oh oh oh and I live my life for you oh-oh baby 

           G         Am
I live my life for you 

F             G         A G A d/F# F
oh I live my life for you 

             E
for all of you I live my 

A G AD/F#   F       A
life for    all of you

Outro

A G A D/F# F G E Repeat fade out





Comments


Popular Blackfoot tabs & chords
Train Train Bass Tabs
Train, Train Bass Tabs
Diary Of A Working Man Tabs
Dry County Tabs
Highway Song2 Tabs
I Got A Line On You Tabs
On The Run Tabs
Searchin Tabs
Street Fighter Tabs
Wishing Well 1 Tabs


Song lyrics



↑ Back to top | Tablatures and chords are parodies/interpretations of the original songs. You may use it for private study, scholarship, research or language learning purposes only
© 2014 AZChords.com Contact us | Privacy policy | DMCA | Add/correct tabs | Request tabs | Top 50 tabs