>
 >
On The Run

On The Run Guitar Tabs

Blackfoot - On The Run chords, tabs, tablatures, lyrics

Guitar lessons | Add/correct | Request | Top 50 tabs Artists:  A B C D E F G H I J K L M N O P Q R S T U V W X Y Z 0-9

On The Run Guitar Tabs – Blackfoot

CD, Sheet music, Poster

Do you like On The Run? Share with your friends now
Tabs
Tuning: E A D G B E
Intro
e|-------------------|------------|-----------------------------|
B|-----------7--5--0-|-------5--2-|-----------7--5--0--3--------|
G|--------2--7--5--0-|-2--2--5--2-|--------2--7--5--0--2--------|
D|--------2--7--5--0-|-2--2--5--2-|--------2--7--5--0--0--------|
A|--------0----------|-0--0-------|--------0-------------0-2-3--|
E|-0-3-4-------------|------------|-0-3-4-----------------------|
   X X X                            X X X		            1st Verse
e|------------------|------------|-------------------|-------------------|
B|----------7--5--0-|-------5--2-|-10\8--9\7--5--7---|-------------------|
G|-------2--7--5--0-|-2--2--5--2-|--9\7--9\7--5--7---|--------2--7--5--2-|
D|-------2--7--5--0-|-2--2--5--2-|-------------------|--------2--7--5--2-|
A|-------0----------|-0--0-------|-------------------|--------0--5--3--0-|
E|-0-2-3------------|------------|-------------------|-0-3-4-------------|
   X X X 				                                             X X X 
e|------------|-3-------|----------------|-------------|------------|
B|------------|-3-------|----------------|-------------|------------|
G|-5--7--5--2-|-0----2--|----------------|--2--7--5--2-|-5--7--5--2-|
D|-5--7--5--2-|-0----2--|----------------|--2--7--5--2-|-5--7--5--2-|
A|-3--5--3--0-|-2----0--|-0-3-2-0--------|--0--5--3--0-|-3--5--3--0-|
E|------------|-3-------|----------0-2-3-|-------------|------------|
    			                     X X X X X X X 
e|-3----------|-2---------------|------------|-2--------------|-------------|
B|-3----------|-3---------------|-3--2--3--2-|-3--------------|-------------|
G|-0-------2--|-2-------------2-|-2--2--2--2-|-2--------------|-------------|
D|-0-------2--|-0-------------2-|-4--2--4--2-|-0--------------|-------------|
A|-2-------0--|-----3-2-0-----0-|------------|-----3-2-0----2-|-7--5--5--7--|
E|-3----------|-----------3-----|------------|-----------3--0-|-0--0--0--0--|
	              Let D Maj ring                  Let D Maj ring
		                Chorus
e|-------------|-------------------|------------|----------------------------|
B|-------------|-----------7--5--0-|-------5--2-|-----------7--5--0--3-------|
G|-------------|--------2--7--5--0-|-2--2--5--2-|--------2--7--5--0--2-------|
D|-------------|--------2--7--5--0-|-2--2--5--2-|--------2--7--5--0--0-------|
A|-7--5--5--7--|--------0----------|-0--0-------|--------0-------------0-2-3-|
E|-0--0--0--0--|-0-3-4-------------|------------|-0-3-4----------------------|
                 X X X                            X X X                X X X
e|------------------|------------|--1-----3--3--|--------------------|
B|----------7--5--0-|-------5--2-|--1-----3--3--|-----------7--5--0--|
G|-------2--7--5--0-|-2--2--5--2-|--2-----4--4--|--------2--7--5--0--|
D|-------2--7--5--0-|-2--2--5--2-|--3-----5--5--|--------2--7--5--0--|
A|-------0----------|-0--0-------|--3-----5--5--|--------0-----------|
E|-0-2-3------------|------------|--1-----------|-12 \1--------------|
   X X X  		



                                    2nd Verse
e|------------|--------------------|-------------------|------------|-3------|
B|-------5--2-|--10\8--9\7--5--7---|-------------------|------------|-3------|
G|-2--2--5--2-|---9\7--9\7--5--7---|--------2--7--5--2-|-5--7--5--2-|-0----2-|
D|-2--2--5--2-|--------------------|--------2--7--5--2-|-5--7--5--2-|-0----2-|
A|-0--0-------|--------------------|--------0--5--3--0-|-3--5--3--0-|-2----0-|
E|------------|--------------------|-0-3-4-------------|------------|-3------|
                                     X X X 
e|----------------|-------------|------------|-3----------|-2---------------|
B|----------------|-------------|------------|-3----------|-3---------------|
G|----------------|--2--7--5--2-|-5--7--5--2-|-0-------2--|-2-------------2-|
D|----------------|--2--7--5--2-|-5--7--5--2-|-0-------2--|-0-------------2-|
A|-0-3-2-0--------|--0--5--3--0-|-3--5--3--0-|-2-------0--|-----3-2-0-----0-|
E|----------0-2-3-|-------------|------------|-3----------|-----------3-----|
   X X X X X X X                                           Let D Maj ring 
e|------------|-2--------------|-------------|-------------|
B|-3--2--3--2-|-3--------------|-------------|-------------|
G|-2--2--2--2-|-2--------------|-------------|-------------|
D|-4--2--4--2-|-0--------------|-------------|-------------|
A|------------|-----3-2-0----2-|-7--5--5--7--|-7--5--5--7--|
E|------------|-----------3--0-|-0--0--0--0--|-0--0--0--0--|
 Chorus         Let D Maj ring
e|-------------------|------------|----------------------------|
B|-----------7--5--0-|-------5--2-|-----------7--5--0--3-------|
G|--------2--7--5--0-|-2--2--5--2-|--------2--7--5--0--2-------|
D|--------2--7--5--0-|-2--2--5--2-|--------2--7--5--0--0-------|
A|--------0----------|-0--0-------|--------0-------------0-2-3-|
E|-0-3-4-------------|------------|-0-3-4----------------------|
   X X X                            X X X                X X X


e|------------------|------------|--1-----3--3--|--------------------|
B|----------7--5--0-|-------5--2-|--1-----3--3--|-----------7--5--0--|
G|-------2--7--5--0-|-2--2--5--2-|--2-----4--4--|--------2--7--5--0--|
D|-------2--7--5--0-|-2--2--5--2-|--3-----5--5--|--------2--7--5--0--|
A|-------0----------|-0--0-------|--3-----5--5--|--------0-----------|
E|-0-2-3------------|------------|--1-----------|-12 \1--------------|

                                              Solo section
e|------------|-------------------|--4--5--6--|-------------------------|
B|-------5--2-|-----------7--5--0-|--4--5--6--|-------------7--9--7-----|
G|-2--2--5--2-|--------2--7--5--0-|--5--6--7--|-------------7--9--7-----|
D|-2--2--5--2-|--------2--7--5--0-|--6--7--8--|-7/9--7--9------------9--|
A|-2--2--5--2-|--------0----------|--6--7--8--|-7/9--7--9------------9--|
E|------------|-0-3-4-------------|--4--5--6--|-------------------------|


e|------------------|------------------------------|---------------|
B|------------------|------------------7--9--7-----|---------------|
G|---------------6--|------------------7--9--7-----|---------------|
D|-7/9--9--7--9--7--|-7/9--9--7--9---------------9-|-7/9--9--7--9--|
A|-7/9--9--7--9--7--|-7/9--9--7--9---------------9-|-7/9--9--7--9--|
E|---------------5--|------------------------------|---------------| 


e|-------------|--2--2--2--------3--3--|-----------------|-------------|
B|-------------|--3--3--3--------3--3--|--2--2--2--2--2--|--2--5\4--2--|
G|-------------|--2--2--2--------0--0--|--2--2--2--2--2--|--2--5\4--2--|
D|-2--4--5--6--|--0--0--0--------0--0--|--2--2--2--2--2--|--2--5\4--2--|
A|-0--2--3--4--|-----------------2--2--|--0--0--0--0--0--|--0----------|
E|-------------|-----------0--2--3--3--|-----------------|-------------|

e|--2--2--2--------3--3--|--3------|------------------------------------|
B|--3--3--3--------3--3--|--3------|------------------------------------|
G|--2--2--2--------0--0--|--0------|------------------------------------|
D|--0--0--0--------0--0--|--0------|------------------------------------|
A|-----------------2--2--|--2---2--|----7p0---5p0----4p0-----2p0--------|
E|-----------0--2--3--3--|--3---0--|--0-----0------0-------0------0--0--|

e|----------------|-------------------|------------|-----------------------|
B|----------------|-----------7--5--0-|-------5--2-|-----------7--5--0--3--|
G|----------------|--------2--7--5--0-|-2--2--5--2-|--------2--7--5--0--2--|
D|-2--4--5--6--4--|--------2--7--5--0-|-2--2--5--2-|--------2--7--5--0--0--|
A|----------------|--------0----------|-0--0-------|--------0--------------|
E|----------------|-0-3-4-------------|------------|-0-3-4-----------------|
                    X X X                            X X X   3rd Verse
e|------------------|------------|-------------------|-------------------|
B|----------7--5--0-|-------5--2-|-10\8--9\7--5--7---|-------------------|
G|-------2--7--5--0-|-2--2--5--2-|--9\7--9\7--5--7---|--------2--7--5--2-|
D|-------2--7--5--0-|-2--2--5--2-|-------------------|--------2--7--5--2-|
A|-------0----------|-0--0-------|-------------------|--------0--5--3--0-|
E|-0-2-3------------|------------|-------------------|-0-3-4-------------|
   X X X 				                                             X X X 
e|------------|-3-------|----------------|-------------|------------|
B|------------|-3-------|----------------|-------------|------------|
G|-5--7--5--2-|-0----2--|----------------|--2--7--5--2-|-5--7--5--2-|
D|-5--7--5--2-|-0----2--|----------------|--2--7--5--2-|-5--7--5--2-|
A|-3--5--3--0-|-2----0--|-0-3-2-0--------|--0--5--3--0-|-3--5--3--0-|
E|------------|-3-------|----------0-2-3-|-------------|------------|
    			                      X X X X X X X 
e|-3----------|-2---------------|------------|-2--------------|-------------|
B|-3----------|-3---------------|-3--2--3--2-|-3--------------|-------------|
G|-0-------2--|-2-------------2-|-2--2--2--2-|-2--------------|-------------|
D|-0-------2--|-0-------------2-|-4--2--4--2-|-0--------------|-------------|
A|-2-------0--|-----3-2-0-----0-|------------|-----3-2-0----2-|-7--5--5--7--|
E|-3----------|-----------3-----|------------|-----------3--0-|-0--0--0--0--|
	                Let D Maj ring                  Let D Maj ring
e|-------------|-------------------|------------|----------------------------|
B|-------------|-----------7--5--0-|-------5--2-|-----------7--5--0--3-------|
G|-------------|--------2--7--5--0-|-2--2--5--2-|--------2--7--5--0--2-------|
D|-------------|--------2--7--5--0-|-2--2--5--2-|--------2--7--5--0--0-------|
A|-7--5--5--7--|--------0----------|-0--0-------|--------0-------------0-2-3-|
E|-0--0--0--0--|-0-3-4-------------|------------|-0-3-4----------------------|
                 X X X                            X X X                X X X
e|------------------|------------|--1-----3--3--|--------------------|
B|----------7--5--0-|-------5--2-|--1-----3--3--|-----------7--5--0--|
G|-------2--7--5--0-|-2--2--5--2-|--2-----4--4--|--------2--7--5--0--|
D|-------2--7--5--0-|-2--2--5--2-|--3-----5--5--|--------2--7--5--0--|
A|-------0----------|-0--0-------|--3-----5--5--|--------0-----------|
E|-0-2-3------------|------------|--1-----------|-12 \1--------------|
   X X X  		

e|------------|--1----3--3--|--------------------|------------|--1-----3--3--|
B|-------5--2-|--1----3--3--|-----------7--5--0--|-------5--2-|--1-----3--3--|
G|-2--2--5--2-|--2----4--4--|--------2--7--5--0--|-2--2--5--2-|--2-----4--4--|
D|-2--2--5--2-|--3----5--5--|--------2--7--5--0--|-2--2--5--2-|--3-----5--5--|
A|-2--2--5--2-|--3----5--5--|--------0-----------|-2--2--5--2-|--3-----5--5--|
E|------------|--1----------|-12 \1--------------|------------|--1-----------|

e|-------------------|------------|-----------------------------|
B|-----------7--5--0-|-------5--2-|-----------7--5--0--3--------|
G|--------2--7--5--0-|-2--2--5--2-|--------2--7--5--0--2--------|
D|--------2--7--5--0-|-2--2--5--2-|--------2--7--5--0--0--------|
A|--------0----------|-0--0-------|--------0-------------0-2-3--|
E|-0-3-4-------------|------------|-0-3-4-----------------------|
   X X X                            X X X	
e|------------------|------------|-------------------||
B|----------7--5--0-|-------5--2-|-10\8--9\7--5--7---||
G|-------2--7--5--0-|-2--2--5--2-|-10\8--9\7--5--7---||
D|-------2--7--5--0-|-2--2--5--2-|------------5--7---||
A|-------0----------|-0--0-------|---------------5---||
E|-0-2-3------------|------------|-------------------||		
  X X X 				              

1st fill				      Guitar II walk-up
e|-15b/17--15--15b/17--12h15p12-------||     |--5\3-------------||
B|-----------------------------13-----||     |--5\3--5\3--1--3--||
G|--------------------------------14--||     |-------4\2--0--2--||
D|------------------------------------||     |------------------||
A|------------------------------------||     |------------------||
E|------------------------------------||     |------------------||

2nd fill
e|-------15-------------------------------------||
B|-15b/17---15b/17--15b/17--17b\15--12--15------||
G|-----------------------------------------14>--||
D|----------------------------------------------||
A|----------------------------------------------||
E|----------------------------------------------||
			                             Dive bar last note
3rd fill
e|---------17--20p17-------17-----------------|-17--------------------||
B|-------17-----------20-------20b/22-20b/22--|----20p17----17--------||
G|-19b/21-------------------------------------|----------19-----17----||
D|--------------------------------------------|-------------------19--||
A|--------------------------------------------|-----------------------||
E|--------------------------------------------|-----------------------||
Main solo
e|---------------|-----------------------|-----------------------------------|
B|-10-----10--10-|-10---10---10---10-----|-10-----10---10----10----10----10--|
G|-9b/11b\9b--7--|-7h9--7----7h9--9b/11--|-9b/11--7----7h9---7-----7h9---7---|
D|---------------|-----------------------|-----------------------------------|
A|---------------|-----------------------|-----------------------------------|
E|---------------|-----------------------|-----------------------------------|	




e|---------------------------|
B|-10----10---10-------10----|
G|-7h9---7----9b/11\9--7h9---|
D|-------------------------9-|
A|---------------------------|
E|---------------------------|   

e|-------7-------7-------7-------7------7-------7--|-7-------------|
B|-------7-------7-------7-------7------7-------7--|---10p7---7----|
G|-10/11---10/11---10/11---10/11---10/11---10/11---|--------9---7--|
D|-------------------------------------------------|---------------| 
A|-------------------------------------------------|---------------| 
E|-------------------------------------------------|---------------| 

e|-------7---------------------------------|-7-8-9-10-|-10--------------------|
B|------7--7--10p7---7---------------------|-7-8-9-10-|-10b/12b\10------------|
G|-9b/11-----------9---10p9p7----7-9-9/11-7|----------|------------7--9/12-12-|
D|-----------------------------9-----------|----------|-----------------------|
A|-----------------------------------------|----------|-----------------------|
E|-----------------------------------------|----------|-----------------------|

e|---------------------------------------------12-------------|
B|-10--10--------10-------10--10---10---12b/14----pb14b\12-10-|
G|-----9b/11b\9--9---9/11--------11---------------------------|
D|------------------------------------------------------------|
A|------------------------------------------------------------|
E|------------------------------------------------------------|

e|---------------------------------------------|--------------||
B|-10------------10----------10-------------10-|-10--------10-||
G|-9b/11b\9b/11--pb9b/11b\9--7----10/11--11----|-9b/11b\9--7--||
D|---------------------------------------------|--------------||
A|---------------------------------------------|--------------||
E|---------------------------------------------|--------------||	

Guitar II Solo end riff
e|------------------------------------|-----------------||
B|------------------------------------|----7--8--9------||
G|------------------------------------|-9-----------9+--||
D-------------------------------------|-----------------||
A|----7p0----5p0----4p0-----2p0-------|-----------------||
E|--0-----0------0-------0------0--0--|-----------------||

Outro solo						   ~
e|-5-----5------------------------|-------------------10b/12---12-12-12--|
B|----8-----5------------------8--|-10--8--10--8--10---------------------|
G|-------------5--p+7b/9b\7-5-----|--------------------------------------|
D---------------------------------|--------------------------------------|
A|--------------------------------|--------------------------------------|
E|--------------------------------|--------------------------------------|
						                      Hold bend for triplets
e|-12-12-12---12-12-12---12-12-12b\10--8-10---|-----------------------------||
B|--------------------------------------------|-8b/10b\8--------------------||
G|------------------------------------------9-|-----------7b/9b\7--5--7-----||
D---------------------------------------------|--------------------5--7-----||
A|--------------------------------------------|-----------------------5-----||
E|--------------------------------------------|-----------------------------||


|| /  slide up
| \  slide down
| h  hammer-on
| p  pull-off
| ~  vibrato
| +  harmonic
| x  Mute note
            A	   D   C	A         C D C    A
Yes, I got off the plane in the pouring rain
G				                         A
headed down for one more show
	    A	      D  C  A	          C   D C   A
and I jumped in a car with a built in bar
G			                         A
hand me a Jack Daniels to go
	D			                             A
well the wheels just keep on a turning
	D				                               E
and roll me to the back stage door Wait little mama
Chorus
 
             A        D  C   G   A      C    A      A D C    D
                                                                            
(I'm on the run)Yeah, I got no time for you now , oh gotta play for my crowd 
	     A    D    C   G   A	     C       A          F
(I'm on the run) I'll see you before the morning sun and uh spread your love 

baby
G
Ha Ha because I'm on the run

2nd Verse
             A     D  C    A          C   D    C          G                 
Well I was just a little late but it sure was great oh I love to hear those
         A   
people yell
         A    D C   A                C D  C   A 
But uh, back in my room I think I'll dust my broom 
          G                    A
 you can only hope to do this well
          D                    A              D                         E
She's got legs clean up to her hairline and I wonder if she's worth a climb 

Chorus
             A      D  C   G     A       C   A       D C  D 
(I'm on the run)Yes,I got some time for you now ,oh done playin for my crowd 
             A       D  C  G      A   C  A          F                     G
(I'm on the run) and I feel the morning sun and uh excuse me little lover 

Yes, ha ha I'm on the run

Solo

3rd Verse

           A   D      C     A       C   D   C     A        G            
Well , Its an early flight and I'm back on this plane oh yeah and I think 

            A
I'm going insane
     A       D        C  A          C  D  C  A     G            
My blood is full of booze and I'm ready to cruise itís funny that I feel no 
A
shame
          D                          A              D
Well she teased me, squeezed me, I almost died she even bring  my jelly roll 
E
down

Wait a minute now
             A       D  C  G   A        C   A      D   C   D
(I'm on the run)Yes, I got no time for you now , oh gotta play for my crowd 
             A          D  C   G   A   C   a           F                   G
(I'm on the run)Yes and I see the morning sun and uh excuse me little lover

Yes, but I'm on the run
    F                    G
Oh Spread your love cause I'm on the run
    F                     G
Oh xcuse me baby yes cause I'm on the run





Comments


Popular Blackfoot tabs & chords
Dream On Tabs
Dry County Tabs
Highway Song Tabs
Highway Song 2 Tabs
I Got A Line On You Tabs
Searchin Tabs
Stars Tabs
Try A Little Harder Tabs
Warped Tabs
Wishing Well 1 Tabs


Song lyrics



↑ Back to top | Tablatures and chords are parodies/interpretations of the original songs. You may use it for private study, scholarship, research or language learning purposes only
© 2014 AZChords.com Contact us | Privacy policy | DMCA | Add/correct tabs | Request tabs | Top 50 tabs