>
 >
Left Turn On A Red Light

Left Turn On A Red Light Guitar Tabs

Blackfoot - Left Turn On A Red Light chords, tabs, tablatures, lyrics

Guitar lessons | Add/correct | Request | Top 50 tabs Artists:  A B C D E F G H I J K L M N O P Q R S T U V W X Y Z 0-9

Left Turn On A Red Light Guitar Tabs – Blackfoot

CD, Sheet music, Poster

Do you like Left Turn On A Red Light? Share with your friends now
Tabs
1. 		      Left Turn On A Red Light- Blackfoot
2.                            Strikes-1979
3.         Words and Music by Rick Medlocke and Jakson Spires
Tuning: Standard and Drop D


Guitar I Standard tuning Clean tone

Intro (Played Four Times)
e|-----------1--0h1--3--1--0--1--------|---------1--------1--------1---------|
B|--------3----------------------3-----|------------1--------1--------2------|
G|-----2-------------------------------|-----2---------2--------2--------2---|
D|--0-------------------------------0--|-------------------------------------|
A|-------------------------------------|--3----------------------------------|
E|-------------------------------------|-------------------------------------|

e|--------------0--------------------0--------|-----------0--1--3--1--0--1---|
B|-----------3-----3--------------3-----3-----|--------3--------------------3|
G|--------0-----------0--------0-----------0--|-----2------------------------|
D|--------------------------------------------|--0---------------------------|
A|--0--1-----------------0--3-----------------|------------------------------|
E|--------------------------------------------|------------------------------|

1st Verse

e|------------------------------------------------------------------|
B|--------3--------3-----------3--------3--------3--------3---------|
G|-----2-----2--------2-----2--------------2--------2--------2------|
D|--0-----------0--------0-----------0--------0--------0--------0---|
A|--------------------------------3---------------------------------|
E|------------------------------------------------------------------|

e|-----------0--------------------0-----------------------------------------|
B|--------3-----3--------------3-----3-----------3--------3--------3--------|
G|-----0-----------0--------0-----------0-----2-----2--------2--------2-----|
D|-----------------------------------------0-----------0--------0--------0--|
A|--1-----------------0--3--------------------------------------------------|
E|--------------------------------------------------------------------------|

e|------------------------------------------------------------------|
B|--------3--------3-----------3--------3--------3--------3---------|
G|-----2-----2--------2-----2--------------2--------2--------2------|
D|--0-----------0--------0-----------0--------0--------0--------0---|
A|--------------------------------3---------------------------------|
E|------------------------------------------------------------------|

e|-----------0--------------------0-----------------------------------------|
B|--------3-----3--------------3-----3-----------3--------3--------3--------|
G|-----0-----------0--------0-----------0-----2-----2--------2--------2-----|
D|-----------------------------------------0-----------0--------0--------0--|
A|--1-----------------0--3--------------------------------------------------|
E|--------------------------------------------------------------------------|

 1st Chorus
e|--3-------------3-------------|------------------------------|
B|--3--3----------3--3----------|--3--3--3----3--3--3--3----3--|
G|--0--0----------0--0----------|--2--2--0h2-----2--2--0h2-----|
D|--0--0-------0--0--0-------0--|--0-----0-------0-----0-------|
A|--2-----0h3-----2-----0h3-----|------------------------------|
E|--3-------------3-------------|------------------------------|

e|--3--3--3-----------|------------------------------|
B|--3--3--3--1--1--1--|--3--3--3----3--3--3--3----3--|
G|--0--0--0--0--0--0--|--2--2--0h2-----2--2--0h2-----|
D|--0--0--0--2--2--2--|--0-----0-------0-----0-------|
A|--2--2--2--3--3--3--|------------------------------|
E|--3--3--3-----------|------------------------------|

e|--3-------------3-------------|------------------------------|
B|--3--3----------3--3----------|--3--3----------3--3----------|
G|--0--0----------0--0----------|--0--0--0----0--0--0--0----0--|
D|--0--0-------0--0--0-------0--|--2--2--0h2-----2--2--0h2-----|
A|--2-----0h3-----2-----0h3-----|--3-------------3-------------|
E|--3-------------3-------------|------------------------------|

e|--3--3--3-----------|------------------------------|
B|--3--3--3--1--1--1--|--3--3--3----3--3--3--3----3--|
G|--0--0--0--0--0--0--|--2--2--0h2-----2--2--0h2-----|
D|--0--0--0--2--2--2--|--0-----0-------0-----0-------|
A|--2--2--2--3--3--3--|------------------------------|
E|--3--3--3-----------|------------------------------|

e|------------------------------|--------------------|
B|--3--3----------3--3----------|--3--3--3--3--3--3--|
G|--0--0--0----0--0--0--0----0--|--0--0--0--0--0--0--|
D|--2--2--0h2-----2--2--0h2-----|--0--0--0--0--0--0--|
A|--3-------------3-------------|--1--1--1--3--3--3--|
E|------------------------------|--------------------|

1st Fill Solo
e|------------------------------|------------------------------|
B|--3--3--3----3--3--3--3----3--|--3--3----------3--3----------|
G|--2--2--0h2-----2--2--0h2-----|--0--0--0----0--0--0--0----0--|
D|--0-----0-------0-----0-------|--2--2--0h2-----2--2--0h2-----|
A|------------------------------|--3-------------3-------------|
E|------------------------------|------------------------------|

e|--------------------|------------------------------|
B|--3--3--3--3--3--3--|--3--3--3----3--3--3--3----3--|
G|--0--0--0--0--0--0--|--2--2--0h2-----2--2--0h2-----|
D|--0--0--0--0--0--0--|--0-----0-------0-----0-------|
A|--1--1--1--3--3--3--|------------------------------|
E|--------------------|------------------------------|

2nd Verse
e|------------------------------|------------------------------|
B|--3--3--3----3--3--3--3----3--|--3--3----------3--3----------|
G|--2--2--0h2-----2--2--0h2-----|--0--0--0----0--0--0--0----0--|
D|--0-----0-------0-----0-------|--2--2--0h2-----2--2--0h2-----|
A|------------------------------|--3-------------3-------------|
E|------------------------------|------------------------------|

e|-----------0--------------------0--------|------------------------------|
B|--------3-----3--------------3-----3-----|--3--3--3----3--3--3--3----3--|
G|-----0-----------0--------0-----------0--|--2--2--0h2-----2--2--0h2-----|
D|-----------------------------------------|--0-----0-------0-----0-------|
A|--1-----------------0--3-----------------|------------------------------|
E|-----------------------------------------|------------------------------|

e|------------------------------|------------------------------|
B|--3--3--3----3--3--3--3----3--|--3--3----------3--3----------|
G|--2--2--0h2-----2--2--0h2-----|--0--0--0----0--0--0--0----0--|
D|--0-----0-------0-----0-------|--2--2--0h2-----2--2--0h2-----|
A|------------------------------|--3-------------3-------------|
E|------------------------------|------------------------------|

e|-----------0--------------------0--------|------------------------------|
B|--------3-----3--------------3-----3-----|--3--3--3----3--3--3--3----3--|
G|-----0-----------0--------0-----------0--|--2--2--0h2-----2--2--0h2-----|
D|-----------------------------------------|--0-----0-------0-----0-------|
A|--1-----------------0--3-----------------|------------------------------|
E|-----------------------------------------|------------------------------|

e|------------------------------|------------------------------|
B|--3--3--3----3--3--3--3----3--|--3--3----------3--3----------|
G|--2--2--0h2-----2--2--0h2-----|--0--0--0----0--0--0--0----0--|
D|--0-----0-------0-----0-------|--2--2--0h2-----2--2--0h2-----|
A|------------------------------|--3-------------3-------------|
E|------------------------------|------------------------------|

e|-----------0--------------------0--------|------------------------------|
B|--------3-----3--------------3-----3-----|--3--3--3----3--3--3--3----3--|
G|-----0-----------0--------0-----------0--|--2--2--0h2-----2--2--0h2-----|
D|-----------------------------------------|--0-----0-------0-----0-------|
A|--1-----------------0--3-----------------|------------------------------|
E|-----------------------------------------|------------------------------|

e|------------------------------|------------------------------|
B|--3--3--3----3--3--3--3----3--|--3--3----------3--3----------|
G|--2--2--0h2-----2--2--0h2-----|--0--0--0----0--0--0--0----0--|
D|--0-----0-------0-----0-------|--2--2--0h2-----2--2--0h2-----|
A|------------------------------|--3-------------3-------------|
E|------------------------------|------------------------------|

e|-----------0--------------------0--------|------------------------------|
B|--------3-----3--------------3-----3-----|--3--3--3----3--3--3--3----3--|
G|-----0-----------0--------0-----------0--|--2--2--0h2-----2--2--0h2-----|
D|-----------------------------------------|--0-----0-------0-----0-------|
A|--1-----------------0--3-----------------|------------------------------|
E|-----------------------------------------|------------------------------|

2nd Chorus
e|--3-------------3-------------|------------------------------|
B|--3--3----------3--3----------|--3--3--3----3--3--3--3----3--|
G|--0--0----------0--0----------|--2--2--0h2-----2--2--0h2-----|
D|--0--0-------0--0--0-------0--|--0-----0-------0-----0-------|
A|--2-----0h3-----2-----0h3-----|------------------------------|
E|--3-------------3-------------|------------------------------|

e|--3--3--3-----------|------------------------------|
B|--3--3--3--1--1--1--|--3--3--3----3--3--3--3----3--|
G|--0--0--0--0--0--0--|--2--2--0h2-----2--2--0h2-----|
D|--0--0--0--2--2--2--|--0-----0-------0-----0-------|
A|--2--2--2--3--3--3--|------------------------------|
E|--3--3--3-----------|------------------------------|

e|--3-------------3-------------|------------------------------|
B|--3--3----------3--3----------|--3--3----------3--3----------|
G|--0--0----------0--0----------|--0--0--0----0--0--0--0----0--|
D|--0--0-------0--0--0-------0--|--2--2--0h2-----2--2--0h2-----|
A|--2-----0h3-----2-----0h3-----|--3-------------3-------------|
E|--3-------------3-------------|------------------------------|

e|--3--3--3-----------|------------------------------|
B|--3--3--3--1--1--1--|--3--3--3----3--3--3--3----3--|
G|--0--0--0--0--0--0--|--2--2--0h2-----2--2--0h2-----|
D|--0--0--0--2--2--2--|--0-----0-------0-----0-------|
A|--2--2--2--3--3--3--|------------------------------|
E|--3--3--3-----------|------------------------------|

e|------------------------------|--------------------|
B|--3--3----------3--3----------|--3--3--3--3--3--3--|
G|--0--0--0----0--0--0--0----0--|--0--0--0--0--0--0--|
D|--2--2--0h2-----2--2--0h2-----|--0--0--0--0--0--0--|
A|--3-------------3-------------|--1--1--1--3--3--3--|
E|------------------------------|--------------------|

Main Solo
e|------------------------------|--3-------------3-------------|
B|--3--3--3----3--3--3--3----3--|--3--3----------3--3----------|
G|--2--2--0h2-----2--2--0h2-----|--0--0----------0--0----------|
D|--0-----0-------0-----0-------|--0--0-------0--0--0-------0--|
A|------------------------------|--2-----0h3-----2-----0h3-----|
E|------------------------------|--3-------------3-------------|

e|------------------------------|--3-------------3-------------|
B|--3--3--3----3--3--3--3----3--|--3--3----------3--3----------|
G|--2--2--0h2-----2--2--0h2-----|--0--0----------0--0----------|
D|--0-----0-------0-----0-------|--0--0-------0--0--0-------0--|
A|------------------------------|--2-----0h3-----2-----0h3-----|
E|------------------------------|--3-------------3-------------|

e|------------------------------|--3-------------3-------------|
B|--3--3--3----3--3--3--3----3--|--3--3----------3--3----------|
G|--2--2--0h2-----2--2--0h2-----|--0--0----------0--0----------|
D|--0-----0-------0-----0-------|--0--0-------0--0--0-------0--|
A|------------------------------|--2-----0h3-----2-----0h3-----|
E|------------------------------|--3-------------3-------------|

e|------------------------------|--------------------|
B|--3--3----------3--3----------|--3--3--3--3--3--3--|
G|--0--0--0----0--0--0--0----0--|--0--0--0--0--0--0--|
D|--2--2--0h2-----2--2--0h2-----|--0--0--0--0--0--0--|
A|--3-------------3-------------|--1--1--1--3--3--3--|
E|------------------------------|--------------------|

Intro Reprise (play three times)
e|-----------1--0h1--3--1--0--1--------|---------1--------1--------1---------|
B|--------3----------------------3-----|------------1--------1--------2------|
G|-----2-------------------------------|-----2---------2--------2--------2---|
D|--0-------------------------------0--|-------------------------------------|
A|-------------------------------------|--3----------------------------------|
E|-------------------------------------|-------------------------------------|

e|--------------0--------------------0--------|-----------0--1--3--1--0--1---|
B|-----------3-----3--------------3-----3-----|--------3--------------------3|
G|--------0-----------0--------0-----------0--|-----2------------------------|
D|--------------------------------------------|--0---------------------------|
A|--0--1-----------------0--3-----------------|------------------------------|
E|--------------------------------------------|------------------------------|

3rd Verse
e|------------------------------|------------------------------|
B|--3--3--3----3--3--3--3----3--|--3--3----------3--3----------|
G|--2--2--0h2-----2--2--0h2-----|--0--0--0----0--0--0--0----0--|
D|--0-----0-------0-----0-------|--2--2--0h2-----2--2--0h2-----|
A|------------------------------|--3-------------3-------------|
E|------------------------------|------------------------------|

e|-----------0--------------------0--------|------------------------------|
B|--------3-----3--------------3-----3-----|--3--3--3----3--3--3--3----3--|
G|-----0-----------0--------0-----------0--|--2--2--0h2-----2--2--0h2-----|
D|-----------------------------------------|--0-----0-------0-----0-------|
A|--1-----------------0--3-----------------|------------------------------|
E|-----------------------------------------|------------------------------|

e|------------------------------|------------------------------|
B|--3--3--3----3--3--3--3----3--|--3--3----------3--3----------|
G|--2--2--0h2-----2--2--0h2-----|--0--0--0----0--0--0--0----0--|
D|--0-----0-------0-----0-------|--2--2--0h2-----2--2--0h2-----|
A|------------------------------|--3-------------3-------------|
E|------------------------------|------------------------------|

e|-----------0--------------------0--------|------------------------------|
B|--------3-----3--------------3-----3-----|--3--3--3----3--3--3--3----3--|
G|-----0-----------0--------0-----------0--|--2--2--0h2-----2--2--0h2-----|
D|-----------------------------------------|--0-----0-------0-----0-------|
A|--1-----------------0--3-----------------|------------------------------|
E|-----------------------------------------|------------------------------|

3rd Chorus
e|--3-------------3-------------|------------------------------|
B|--3--3----------3--3----------|--3--3--3----3--3--3--3----3--|
G|--0--0----------0--0----------|--2--2--0h2-----2--2--0h2-----|
D|--0--0-------0--0--0-------0--|--0-----0-------0-----0-------|
A|--2-----0h3-----2-----0h3-----|------------------------------|
E|--3-------------3-------------|------------------------------|

e|--3--3--3-----------|------------------------------|
B|--3--3--3--1--1--1--|--3--3--3----3--3--3--3----3--|
G|--0--0--0--0--0--0--|--2--2--0h2-----2--2--0h2-----|
D|--0--0--0--2--2--2--|--0-----0-------0-----0-------|
A|--2--2--2--3--3--3--|------------------------------|
E|--3--3--3-----------|------------------------------|

e|--3-------------3-------------|------------------------------|
B|--3--3----------3--3----------|--3--3----------3--3----------|
G|--0--0----------0--0----------|--0--0--0----0--0--0--0----0--|
D|--0--0-------0--0--0-------0--|--2--2--0h2-----2--2--0h2-----|
A|--2-----0h3-----2-----0h3-----|--3-------------3-------------|
E|--3-------------3-------------|------------------------------|

e|--------------------------|--------------------------|
B|--3--3--3--3--3--3--3--3--|--3--3--3--3--3--3--3--3--|
G|--0--0--0--0--0--0--0--0--|--0--0--0--0--0--0--0--0--|
D|--0--0--0--0--0--0--0--0--|--0--0--0--0--0--0--0--0--|
A|--1--1--1--1--1--1--1--1--|--3--3--3--3--3--3--3--3--|
E|--------------------------|--------------------------|

e|--3--3--3--3--3--3--3--3--|--1--1--1--1--1--1--1--1--|
B|--3--3--3--3--3--3--3--3--|--1--1--1--1--1--1--1--1--|
G|--0--0--0--0--0--0--0--0--|--2--2--2--2--2--2--2--2--|
D|--0--0--0--0--0--0--0--0--|--3--3--3--3--3--3--3--3--|
A|--2--2--2--2--2--2--2--2--|--3--3--3--3--3--3--3--3--|
E|--3--3--3--3--3--3--3--3--|--1--1--1--1--1--1--1--1--|

e|--------------------|--------|
B|--3--3--3--3--3--3--|---3----|
G|--0--0--0--0--0--0--|---2----|
D|--0--0--0--0--0--0--|---0----|
A|--1--1--1--3--3--3--|--------|
E|--------------------|--------|


Guitar II Clean tone Drop D tuning

Intro (play four times)
e|------------------------------------------------------------------|
B|--------3--------3-----------3--------3--------3--------3---------|
G|-----2-----2--------2-----2--------------2--------2--------2------|
D|--0-----------0--------0-----------0--------0--------0--------0---|
A|--------------------------------3---------------------------------|
E|------------------------------------------------------------------|

e|-----------0--------------------0------------------------------------------|
B|--------3-----3--------------3-----3------------3--------3--------3--------|
G|-----0-----------0--------0-----------0------2-----2--------2--------2-----|
D|-----------------------------------------0*-----------0--------0--------0--|
A|--1-----------------0--3---------------------------------------------------|
E|---------------------------------------------------------------------------|

* Play on fourth time
e|--------------------------------------------------|
B|--------3--------3--------3-----------------------|
G|-----2-----2--------2--------2--------------------|
D|--0-----------0--------0-----------------3p0------|
A|--------------------------------0--3--0-------3---|
E|--------------------------------------------------|

1st Verse Blues overdrive
e|--------------------------------------------------------|
B|--------------------------------------------------------|
G|--------------------------------------------------------|
D|-----0---------0--------------0--------0----------3p0---|
A|--0-------0h3------------0h3-------3-------0--3---------|
E|-------------------0------------------------------------|

e|--------0--------------0--------|--------------------------------------|
B|-----------3--------------3-----|--------------------------------------|
G|-----0--------0-----0--------0--|--------------------------------------|
D|--------------------------------|--0---------0--3--0--------0-------0--|
A|--1--------------3--------------|------0--3-----------3--0-------------|
E|--------------------------------|------------------------------3-------|

e|-----------------------|-------0--------------0-------|--------------------|
B|-----------------------|----------3--------------3----|--------------------|
G|-----------------------|----0--------0-----0--------0-|--------------------|
D|------0-----------3p0--|------------------------------|----0--0------------|
A|--3-------0---3--------|-1--------------3-------------|-0--------3--0------|
E|-----------------------|------------------------------|----------------3--0|

e|----------|
B|-----3----|
G|-----2----|
D|-----0----|
A|----------|
E|----------|

1st Chorus
e|------------------------------|---------------------|-------------------|
B|--3--3----------3--3----------|--3---------------3--|------3--------1---|
G|--0--0----------0--0----------|--2---------------2--|------0--------0---|
D|--0--0----------0--0----------|--0---------------0--|------0--------2---|
A|--5----------3--5----------3--|-----3p0-------------|------5--------3---|
E|--5-----0h3-----5-----0h3-----|----------3p0--0-----|--5---5----3-------|

e|-------------------------------------------|------------------------------|
B|--3-----------------3-------3-----------3--|--1--1----------1--1----------|
G|--2-----------------2-------0-----------0--|--0--0-------0--0--0-------0--|
D|--0-----------------0-------0-----------0--|--2-----0h2-----2-----0h2-----|
A|-----0h3p0------------------5-------3---5--|--3-------------3-------------|
E|------------3p0--0------5---5--0h3------5--|------------------------------|

e|--------0--------------0----------------|
B|-----------3--------------3---------3---|
G|-----0--------0-----0--------0------2---|
D|------------------------------------0---|
A|--1--------------3--------------0-------|
E|----------------------------------------|

1st Guitar Fill
e|-------------------------------------------------------|
B|-------------------------------------------------------|
G|-------------------------------------------------------|
D|--------0----------------0--------0--------------3p0---|
A|--0h3-------------0h3--------3----------0--3-----------|
E|------------0------------------------------------------|

e|--------0--------------0--------|------------------------------------------|
B|-----------3--------------3-----|-----3------------------------------------|
G|-----0--------0-----0--------0--|-----2------------------------------------|
D|--------------------------------|-----0--------0--3--0--------0---------0--|
A|--1--------------3--------------|--0-----0--3-----------3--0---------------|
E|--------------------------------|----------------------------------3-------|

2nd Verse
e|---------------------------------------------|
B|---------------------------------------------|
G|---------------------------------------------|
D|-------0-------------0------0-----------3p0--|
A|--0h3-----------3h0------3------0---3--------|
E|-----------0---------------------------------|

e|--------0--------------0--------|--------------------------------------|
B|-----------3--------------3-----|--------------------------------------|
G|-----0--------0-----0--------0--|--------------------------------------|
D|--------------------------------|--0---------0--3--0--------0----------|
A|--1--------------3--------------|------0--3-----------3--0-------------|
E|--------------------------------|------------------------------3----0--|

e|---------------------------------------------|
B|---------------------------------------------|
G|---------------------------------------------|
D|-------0-------------0------0-----------3p0--|
A|--0h3-----------3h0------3------0---3--------|
E|-----------0---------------------------------|

e|--------0--------------0--------|--------------------------------------|
B|-----------3--------------3-----|--------------------------------------|
G|-----0--------0-----0--------0--|--------------------------------------|
D|--------------------------------|--0---------0--3--0--------0----------|
A|--1--------------3--------------|------0--3-----------3--0----------0--|
E|--------------------------------|------------------------------3----0--|

e|---------------------------------------------|
B|---------------------------------------------|
G|---------------------------------------------|
D|-------0-------------0------0-----------3p0--|
A|--0h3-----------3h0------3------0---3--------|
E|-----------0---------------------------------|

e|--------0--------------0--------|--------------------------------------|
B|-----------3--------------3-----|--------------------------------------|
G|-----0--------0-----0--------0--|--------------------------------------|
D|--------------------------------|--0---------0--3--0--------0----------|
A|--1--------------3--------------|------0--3-----------3--0-------------|
E|--------------------------------|------------------------------3----0--|

e|---------------------------------------------|
B|---------------------------------------------|
G|---------------------------------------------|
D|-------0-------------0------0-----------3p0--|
A|--0h3-----------3h0------3------0---3--------|
E|-----------0---------------------------------|

e|--------0--------------0--------|--------------------------------------|
B|-----------3--------------3-----|-----3--------------------------------|
G|-----0--------0-----0--------0--|-----2--------------------------------|
D|--------------------------------|-----0--------0--3--0--------0--------|
A|--1--------------3--------------|--0-----0--3-----------3--0-----------|
E|--------------------------------|----------------------------------3---|

2nd Chorus
e|------------------------------|---------------------|-------------------|
B|--3--3----------3--3----------|--3---------------3--|------3--------1---|
G|--0--0----------0--0----------|--2---------------2--|------0--------0---|
D|--0--0----------0--0----------|--0---------------0--|------0--------2---|
A|--5----------3--5----------3--|-----3p0-------------|------5--------3---|
E|--5-----0h3-----5-----0h3-----|----------3p0--0-----|--5---5----3-------|

e|-------------------------------------------|------------------------------|
B|--3-----------------3-------3-----------3--|--1--1----------1--1----------|
G|--2-----------------2-------0-----------0--|--0--0-------0--0--0-------0--|
D|--0-----------------0-------0-----------0--|--2-----0h2-----2-----0h2-----|
A|-----0h3p0------------------5-------3---5--|--3-------------3-------------|
E|------------3p0--0------5---5--0h3------5--|------------------------------|

e|--------0--------------0----------------|
B|-----------3--------------3-------------|
G|-----0--------0-----0--------0----------|
D|----------------------------------------|
A|--1--------------3--------------0-------|
E|------------------------------------0---|

e|--------------------------------------------------|
B|--------------------------------------------------|
G|--------------------------------------------------|
D|-------0-------------0------0-----------3p0-------|
A|--0h3-----------3h0------3------0---3--------3p0--|
E|-----------0--------------------------------------|

e|--------0--------------0--------------------------------------------|
B|-----------3--------------3---------3-------------------------------|
G|-----0--------0-----0--------0------2-------------------------------|
D|------------------------------------0--0--------------0--0h3-----0--|
A|--1--------------3--------------0---------3--0----------------3-----|
E|------------------------------------------------3--0----------------|

Main Solo
e|------------------------------|---------------------|-------------------|
B|--3--3----------3--3----------|--3---------------3--|------3--------1---|
G|--0--0----------0--0----------|--2---------------2--|------0--------0---|
D|--0--0----------0--0----------|--0---------------0--|------0--------2---|
A|--5----------3--5----------3--|-----3p0-------------|------5--------3---|
E|--5-----0h3-----5-----0h3-----|----------3p0--0-----|--5---5----3-------|

e|---------------------------|-------------------|
B|--3------------------------|-----3----------3--|
G|--2-------------3p2-----2--|-----0----------0--|
D|--0-------0--3-------3-----|-----0----------0--|
A|-----0h3-------------------|-----5-------3--5--|
E|---------------------------|--5--5--0h3-----5--|

e|------------------------------|--------0--------------0-----------|
B|--1--1----------1--1----------|-----------3--------------3--------|
G|--0--0-------0--0--0-------0--|-----0--------0-----0--------0-----|
D|--2-----0h2-----2-----0h2-----|-----------------------------------|
A|--3-------------3-------------|--1--------------3--------------0--|
E|------------------------------|-----------------------------------|

e|---------------------------------|
B|---------------------------------|
G|-------------5+-------------7+---|
D|--12+---5+-----------------------|
A|------------------5+-------------|
E|-----------------------7+--------|

Intro Reprise
e|-----------------------------------------------------------------|
B|--3----1---3---3---3---3---1---3---3---3-------------------------|
G|--2----0---0---0---2---2---0---0---0---2-------------------------|
D|--0----2---0---0---0---0---2---0---0---0-----------3p0--------0--|
A|-------3---1---3-----------3---1---3------0--3--0-------3--0-----|
E|-----------------------------------------------------------------|
-
3rd Verse
e|---------------------------------------------|
B|---------------------------------------------|
G|---------------------------------------------|
D|-------0-------------0------0-----------3p0--|
A|--0h3-----------3h0------3------0---3--------|
E|-----------0---------------------------------|

e|--------0--------------0--------|--------------------------------------|
B|-----------3--------------3-----|--------------------------------------|
G|-----0--------0-----0--------0--|--------------------------------------|
D|--------------------------------|--0---------0--3--0--------0-------0--|
A|--1--------------3--------------|------0--3-----------3--0-------------|
E|--------------------------------|------------------------------3-------|

e|---------------------------------------------|
B|---------------------------------------------|
G|---------------------------------------------|
D|-------0-------------0------0-----------3p0--|
A|--0h3-----------3h0------3------0---3--------|
E|-----------0---------------------------------|

e|--------0--------------0------------------------------------|
B|-----------3--------------3----------------------------2----|
G|-----0--------0-----0--------0-------------------------3----|
D|------------------------------------0--0---------------0----|
A|--1--------------3--------------0---------3--0--------------|
E|------------------------------------------------3--0--------|

3rd Chorus
e|------------------------------|---------------------|-------------------|
B|--3--3----------3--3----------|--3---------------3--|------3--------1---|
G|--0--0----------0--0----------|--2---------------2--|------0--------0---|
D|--0--0----------0--0----------|--0---------------0--|------0--------2---|
A|--5----------3--5----------3--|-----3p0-------------|------5--------3---|
E|--5-----0h3-----5-----0h3-----|----------3p0--0-----|--5---5----3-------|

e|---------------------------|-------------------|
B|--3------------------------|-----3----------3--|
G|--2-------------3p2-----2--|-----0----------0--|
D|--0-------0--3-------3-----|-----0----------0--|
A|-----0h3-------------------|-----5-------3--5--|
E|---------------------------|--5--5--0h3-----5--|

e|------------------------------|--------0--------------0------------|
B|--1--1----------1--1----------|-----------3--------------3---------|
G|--0--0-------0--0--0-------0--|-----0--------0-----0--------0------|
D|--2-----0h2-----2-----0h2-----|------------------------------------|
A|--3-------------3-------------|--1--------------3--------------0---|
E|------------------------------|------------------------------------|

e|--------0----------------0-------------|--------------------------|
B|-----------3----------------3----------|--------------------------|
G|-----0--------0-------0--------0-------|--------------------------|
D|---------------------------------------|--------------------------|
A|--1--------------0--3--------------0---|-----5-----5-----3-----3--|
E|---------------------------------------|--5-----5-----3-----3-----|

e|--------0---------------0-------------|-------------------------------|
B|-----------3---------------3----------|--3----------------------------|
G|-----0--------0------0--------0-------|--2----------------------------|
D|--------------------------------------|--0--------0--3p0--------------|
A|--1---------------3---------------0---|-----0--3----------3p0---------|
E|--------------------------------------|------------------------0--5+--|


Guitar III over driven Drop D tuning

1st Solo Fill
e|---------------------10-------------------------------------10------------|
B|--13b--13br--10--13------13-----------------------------13----------------|
G|-----------------------------12br--10--12------10--12b----------12br--10--|
D|-------------------------------------------12-----------------------------|
A|--------------------------------------------------------------------------|
E|--------------------------------------------------------------------------|

e|-----------------------------------------------|
B|-------10--13--------10--13br--13--10--13--10--|
G|--12b----------12br----------------------------|
D|-----------------------------------------------|
A|-----------------------------------------------|
E|-----------------------------------------------|

e|----------------------------------------|
B|----------------------------------------|
G|--12--10--------------------------------|
D|----------12p10----------10-------------|
A|-----------------12--12------12p10------|
E|------------------------------------12--|

Main Solo

P.M.--------------------------------------------------------------------------
e|---------------------------------------------------------------------------|
B|---------------------------------------------------------------------------|
G|---------------------------------------------------------------------10--9-|
D|--10--12--10--12--10--12--10--12--12--10--10--12--10--12--12--12p10--------|
A|---------------------------------------------------------------------------|
E|---------------------------------------------------------------------------|

-------------------|
e|-------------------------------------------------------------|
B|-------------------------------------------------------------|
G|--9--10p9----------5p7--7--5------------------------------7--|
D|-----------12--10-------------7--7\5--3--4b--3--5------------|
A|---------------------------------------------------3--5------|
E|-------------------------------------------------------------|

e|------------13---------------------------------------------------------|
B|--13b--13b------13--13b--13pbr--10-------------------------------------|
G|------------------------------------12--12brp+--10------12------10------|
D|---------------------------------------------------12------12------12--|
A|-----------------------------------------------------------------------|
E|-----------------------------------------------------------------------|

e|-------------------------------------------------------------------------|
B|--13b--10-----------------------------------13--12--10------10-----------|
G|-----------10-------------10--12--10--------------------12------10-------|
D|---------------12---9/12--------------12p+--------------------------12---|
A|-------------------------------------------------------------------------|
E|-------------------------------------------------------------------------|

e|-----------------13------13--15br--13--15--15--15br--13------13--15br-13--|
B|---------13--15------15----------------------------------15---------------|
G|--10/14-------------------------------------------------------------------|
D|--------------------------------------------------------------------------|
A|--------------------------------------------------------------------------|
E|--------------------------------------------------------------------------|

e|--15b--15b--15b--15br--15--13------15br--13--15------13------------------|
B|-------------------------------15----------------15----------15----------|
G|---------------------------------------------------------14------14--12--|
D|-------------------------------------------------------------------------|
A|-------------------------------------------------------------------------|
E|-------------------------------------------------------------------------|

e|--------------------------------------13-------------------------------|
B|---------------------------------13b------13--13b--13pbr--13-----------|
G|--14\12--10--12--12brp+--12--10-------------------------------12brp+---|
D|-----------------------------------------------------------------------|
A|-----------------------------------------------------------------------|
E|-----------------------------------------------------------------------|

e|-----------------------------------------------------------------------|
B|-----------------------------------------------------------------------|
G|--10------12------10--12+p~~--12+p--10+p-------------------------------|
D|------12------12--------------------------12--10-----------------------|
A|--------------------------------------------------12p10--8--10-8-------|
E|------------------------------------------------------------------10\--|

e|-----------------------------------|
B|------------------------------13b--|
G|----------------10--12br--10-------|
D|--------10--12---------------------|
A|--8/12-----------------------------|
E|-----------------------------------|

2nd Fill
e|--------------------------------------------|
B|--------------------------------------------|
G|--12b--12pbr--10--12--10--------------------|
D|--------------------------12--10------------|
A|----------------------------------12p10--5--|
E|--------------------------------------------|

************************************


| /   slide up
| \   slide down
| h   hammer-on
| p   pull-off
| ~   vibrato
| +   harmonic
| +p  Pinch harmonic
| x   Mute note
| b   Bend
| pb  Pre-bend
| br  Bend release
| pbr Pre-bend release
| brb Bend release bend
************************************
Intro
Dm   Dsus   Dm   Asus   Dm  F
G/Bb   Cadd9   Asus   Dm   Dsus    Dm   Asus   Dm   Asus

Dm		                  F
It' nine o' clock in this old 

               G/Bb   Cadd9                     Dm   Dsus   Dm  Asus  Dm  Asus
station and my silver linin ride is a right on time 
Dm                           F
and I buy myself a one way ticket 
    G/Bb Cadd9                   Dm
for some where else on down the line 

1st Verse
Dm                       C          G/Bb             Cadd9       Dm
And I see that on their faces of a people that will never come home 

                           C
and when I stare into the mirror mama 
G/Bb    Cadd9     Dm         G
See myself all alone 0h oh 

1st Chorus
                           Asus            

and did you ever stop to wonder 

            G             Cadd9         D
about the times that she laid by your side 

G
when you know that I was right 

         C
And you finally realize you took a 

G/Bb    Cadd9        Dm
left turn on a red light 

Fill
         Cadd9      G/Bb    Cadd9   Dm

2nd Verse
Dm                      Cadd9
Sun shines down on the desert 

        G/Bb     Cadd9          Dm
and it seems to make my life a haze 

                             Cadd9
and I dream of my childhood sweetheart

         G/Bb          Cadd9         Dm
and the freedom that I had in those days 
                          Cadd9
when I wake from all my dreamin' 

           G/Bb         Cadd9         Dm
will this boxcar always be my lonely home 

yeah well I don't know where I am 

      Cadd9
and I really don't give a damn 

      G/Bb         Cadd9              Dm
this crazy life of mine will soon be gone 

2nd Chorus
                           Asus            

and did you ever stop to wonder 

            G             Cadd9         D
about the times that she laid by your side 

G
when you know that I was right 

         C
And you finally realize you took a 

G/Bb    Cadd9        Dm
left turn on a red light 

Cadd9    G/Bb     Cadd9     Dm

Main Solo
G    Dm   G   Cadd9   Dm    G   Cadd9    G/Bb   Cadd9
Dm   Dsus   Dm   Asus   Dm  F
G/Bb   Cadd9   Asus   Dm   Dsus    Dm   Asus   Dm   Asus

	   Dm                         Cadd9
Well it's nine o'clock at this old station 

G/Bb          Cadd9            Dm
once again my ride is right on time 

                             Cadd9
and as I buy myself another ticket Lord 

       G/Bb        Cadd9        Dm
for somewhere else on down the line 

3rd Verse

		           Cadd9
well I'll always be a rambler 

         G/Bb   Cadd9                    Dm
well the ones I love always keep tellin' me 

                          Cadd9
you stare too long in the mirror son 

G/Bb           Cadd9            Dm
someday you'll be too blind to see 

3rd Chorus

   G                     Dm
Oh and now I can stop my wonderin' 


           G              Cadd9      D
about the times that she laid by my side 
 
       G                           Cadd9
now I know that I was right and I finally realize 

          G/Bb   Cadd9       G         F   G/Bb    Cadd9   Asus
I took a left turn on a red light Who-o-o-o-o-o-h





Comments


Popular Blackfoot tabs & chords
Born To Rock And Roll Tabs
Dream On Tabs
Flyin High Tabs
Good Morning Tabs
Highway Song Tabs
Highway Song 1 Tabs
Railroad Man Tabs
Road Fever Tabs
Train Train Tabs
Warped Tabs


Song lyrics



↑ Back to top | Tablatures and chords are parodies/interpretations of the original songs. You may use it for private study, scholarship, research or language learning purposes only
© 2014 AZChords.com Contact us | Privacy policy | DMCA | Add/correct tabs | Request tabs | Top 50 tabs