>
 >
I Got A Line On You

I Got A Line On You Guitar Tabs

Blackfoot - I Got A Line On You chords, tabs, tablatures, lyrics

Guitar lessons | Add/correct | Request | Top 50 tabs Artists:  A B C D E F G H I J K L M N O P Q R S T U V W X Y Z 0-9

I Got A Line On You Guitar Tabs – Blackfoot

CD, Sheet music, Poster

Do you like I Got A Line On You? Share with your friends now
Tabs
-
2.                                  Strikes-1979
3.                           Words and Music Randy California

Tuning: standard

1st Verse
e|-------------------|-------------------|-------------------|
B|-------------------|-------------------|-------------------|
G|--------9----7-----|--------9----7-----|--------9----7-----|
D|--9-----9----7-----|--9-----9----7-----|--9-----9----7-----|
A|--9-----7----5-----|--9-----7----5-----|--9-----7----5-----|
E|--7----------------|--7----------------|--7----------------|

e|--------------------------------------------|
B|--------------------------------------------|
G|--------------------------------------------|
D|--9--9--9--9--9--9--9--9--9--9--9--9--9---7-|
A|--9--9--9--9--9--9--9--9--9--9--9--9--9---7-|
E|--7--7--7--7--7--7--7--7--7--7--7--7--7---5-|


Chorus play twice
e|-------------------------------------------------------------------------|
B|-------------------------------------------------------------------------|
G|-------------------------------------------------------------------------|
D|--5--5-------------------------------------------------------------------|
A|--5--5--7--5--7--7--------------5--7---9--9--11--9--11--9--9--11--9--11--|
E|--3--3--3--3--3--5--5--7--5--8---------7--7--7---7--7---7--7--7---7--7---|

2nd Verse  play twice
e|----------------------|----------------------|----------------------|
B|----------------------|----------------------|----------------------|
G|------------9--9--7---|------------9--9--7---|------------9--9--7---|
D|--9---9\7---9--9--7---|--9---9\7---9--9--7---|--9---9\7---9--9--7---|
A|--9---9\7---7--7--5---|--9---9\7---7--7--5---|--9---9\7---7--7--5---|
E|--7---7\5-------------|--7---7\5-------------|--7---7\5-------------|


2nd Chorus play twice
e|-------------------------------------------------------------------------|
B|-------------------------------------------------------------------------|
G|-------------------------------------------------------------------------|
D|--5--5-------------------------------------------------------------------|
A|--5--5--7--5--7--7--------------5--7---9--9--11--9--11--9--9--11--9--11--|
E|--3--3--3--3--3--5--5--7--5--8---------7--7--7---7--7---7--7--7---7--7---|

Break down and rythem and lead guitar I play twice
e|----------------------------|--------------------------------------------|
B|--7/9---9--7----------------|--------------------------------------------|
G|--7/9---9--7----------------|-----7--10/12\9---9--7-----------------6----|
D|--7/9---9--7--7--5--7p5-----|--9--7--10/12\9---9--7--7--5--7p5------7----|
A|--------------7--5--7p5--7--|--9---------------------7--5--7p5--7---7----|
E|-------------------------7--|-----------------------------------7---5----|

2nd break guitar I
e|-----------------------|-------------------|-------------------------|
B|-----------------------|-------------------|-------------------------|
G|-----------------------|-------------------|-------------------------|
D|--------5------7--5----|------5-----7--5---|-------------------------|
A|--5/7------7-----------|--7------7---------|--7--7--5----------------|
E|-----------------------|-------------------|------------5--3--5p3p0--|

e|-----------------|
B|-----------------|
G|-----------------|
D|-----------5-----|
A|-------5------7--|
E|--5/7------------|

3rd Chorus play twice
e|-------------------------------------------------------------------------|
B|-------------------------------------------------------------------------|
G|-------------------------------------------------------------------------|
D|--5--5-------------------------------------------------------------------|
A|--5--5--7--5--7--7--------------5--7---9--9--11--9--11--9--9--11--9--11--|
E|--3--3--3--3--3--5--5--7--5--8---------7--7--7---7--7---7--7--7---7--7---|

3rd Verse
e|------------|-----------------------|-----------------------|
B|--10-----9--|-----------------------|-----------------------|
G|--9------9--|-------------9---9/13--|-------------9---9/13--|
D|--9------9--|--9---9\7----9---9/13--|--9---9\7----9---9/13--|
A|--7------7--|--9---9\7----7---7-----|--9---9\7----7---7-----|
E|------------|--7---7\5--------------|--7---7\5--------------|

e|------------------------|------------------------|------------------------|
B|------------------------|------------------------|------------------------|
G|-------------9---9---7--|-------------9---9---7--|-------------9---9---7--|
D|--9---9\7----9---9---7--|--9---9\7----9---9---7--|--9---9\7----9---9---7--|
A|--9---9\7----7---7---5--|--9---9\7----7---7---5--|--9---9\7----7---7---5--|
E|--7---7\5---------------|--7---7\5---------------|--7---7\5---------------|

e|------------------------|------------------------|
B|------------------------|------------------------|
G|-------------9---9---7--|-------------9---9---7--|
D|--9---9\7----9---9---7--|--9---9\7----9---9---7--|
A|--9---9\7----7---7---5--|--9---9\7----7---7---5--|
E|--7---7\5---------------|--7---7\5---------------|

e|--------------------------------------------|
B|--------------------------------------------|
G|--------------------------------------------|
D|--9--9--9--9--9--9--9--9--9--9--9--9--9---7-|
A|--9--9--9--9--9--9--9--9--9--9--9--9--9---7-|
E|--7--7--7--7--7--7--7--7--7--7--7--7--7---5-|

4th Chorus play till fade out
e|-------------------------------------------------------------------------|
B|-------------------------------------------------------------------------|
G|-------------------------------------------------------------------------|
D|--5--5-------------------------------------------------------------------|
A|--5--5--7--5--7--7--------------5--7---9--9--11--9--11--9--9--11--9--11--|
E|--3--3--3--3--3--5--5--7--5--8---------7--7--7---7--7---7--7--7---7--7---|


Main solo
e|--10b--10br--7------------------------------------|
B|----------------10--8--10p8-----------------------|
G|------------------------------9--7--9--7--9p7-----|
D|-----------------------------------------------9--|
A|--------------------------------------------------|
E|--------------------------------------------------|

e|----------7--------------------------------|
B|-------------9---9--7----------------------|
G|-------7---------------9--7--9p7------7h9--|
D|--7/9-----------------------------9--------|
A|-------------------------------------------|
E|-------------------------------------------|

Break down Guitar II
e|-------------------|---------------------------------------------|
B|-------------------|---------------5-----------------------------|
G|-------------------|--4---4--7--4-----7--4--4--------------------|
D|-------5-----7--5--|---------------------------7--7p5------------|
A|--5/7-----7--------|-----------------------------------7-7p5-----|
E|-------------------|------------------------------------------7--|

e|-----------------|
B|-----------8-----|
G|-------7------9--|
D|--7/9------------|
A|-----------------|
E|-----------------|


************************************

| /   slide up
| \   slide down
| h   hammer-on
| p   pull-off
| ~   vibrato
| +   harmonic
| x   Mute note
| b   Bend
| pb  Pre-bend
| br  Bend release
| pbr Pre-bend release
| brb Bend release bend

************************************
1st Verse

       B             E            D    B    E  D
Let me take you baby down to the river bed (oh, oh)
         B                            E            D   B     
I got to tell you something that will go right to your head

Chorus

A   G           A   B
ah, oh I got a line ( I got a line on you babe)

G           A   B
Oh,oh,oh,oh,yeah (I got a line on you babe)

B  A   E  D
Oh yes,yes

2nd Verse
 
    B                    A           E           D     B     A      E     
Just put your arms around me give me every bit of your love ( oh,oh,oh,oh,oh)

D        B                     A   E         D
Well You know what to do cause its up to you 

     B               A              E             D
you got the kind of love to make it through these times

Chorus

G       A   B
ah, oh Yeah ( I got a line on you babe)

G           A   B
Oh,oh,oh,oh,yeah (I got a line on you babe)

Breakdown and solo

Chorus

G            A       B
Well I got a line on you

      G        A           B                    Esus4  E
AH, Oh I got A line on you baby ( Got a line on you babe)

B A E  B A  E

3rd verse

               B               A     E            D         B     A  E 
Now you listen winters almost over summers shes a comin on strong

D            B              A     E                     D     B
I'm going to love you, love you, love you, love you all year long

Chorus repeat till fade out

G       A   B
ah, oh Yeah ( I got a line on you babe)

G           A   B
Oh,oh,oh,oh,yeah (I got a line on you babe)





Comments


Popular Blackfoot tabs & chords
Train, Train Bass Tabs
Highway Song Chords
Born To Rock And Roll Tabs
Dream On Tabs
Highway Song 2 Tabs
Highway Song2 Tabs
Payin For It Tabs
Reckless Abandoner Tabs
Stranger On The Road Tabs
Wishing Well 1 Tabs


Song lyrics



↑ Back to top | Tablatures and chords are parodies/interpretations of the original songs. You may use it for private study, scholarship, research or language learning purposes only
© 2014 AZChords.com Contact us | Privacy policy | DMCA | Add/correct tabs | Request tabs | Top 50 tabs